Ryan Cabrera - On The Way Down Chords & Tabs

 

On The Way Down Chords & Tabs

Ryan Cabrera Chords & Tabs

Version: 1 Type: Tab 0 ratings
1 star 2 stars 3 stars 4 stars 5 stars
comments

On The Way Down Tab

Excellent song by an excellent performer, can't wait until the cd comes out
this should be close to perfect, but this is what ryan plays and if anyone can
figure out what the lead electric is playing please post

INTRO/VERSE
Tune down 1/2 step
Eb|-0---0---0---0------||
Bb|-0---0---0---0------||
Gb|-9---9---9---9------||
Db|-11--11--11--11-----||
Ab|-9---9---12--11-----||
Eb|-0---10-------------||


CHORUS
[ Tab from: http://www.guitartabs.cc/tabs/r/ryan_cabrera/on_the_way_down_tab.html ]
Eb|-2--0--0--0----||
Bb|-2--3--0--0----||
Gb|-2--2--2--1----|| 4 TIMES
Db|-4--0--2--2----||
Ab|-4-----0--2----||
Eb|-2--------0----||


VERSE

CHORUS

BRIDGE

Eb|-0--0--2--0----||
Bb|-0--3--2--3----||
Gb|-1--2--2--2----||
Db|-2--0--4--0----||
Ab|-2-----4-------||
Eb|-0-----2-------||

Eb|-2--0--0--0-----||
Bb|-2--0--3--0-----||
Gb|-2--1--2--1-----||
Db|-4--2--0--2-----||
Ab|-4--2-----2-----||
Eb|-2--0-----0-----||

CHORUS 3 1/2 times (play riff 14 times)
Comments