Ryan Cabrera - Illusions Chords & Tabs

 

Illusions Chords & Tabs

Ryan Cabrera Chords & Tabs

Version: 1 Type: Tab 0 ratings
1 star 2 stars 3 stars 4 stars 5 stars
comments

Illusions Tab

-------------------------------------------------------------------------------
			     Ryan Cabrera - Illusions
-------------------------------------------------------------------------------
Tabbed by: Jon Zmania
Email:

Tuning: 1/2 step down
Intro - figure out the strumming pattern
e|----------0----0----0------------------------------------------------------------|
B|----------0----2----3------------------------------------------------------------|
G|----------1----2----2------------------------------------------------------------|
D|----4-----2----2----0------------------------------------------------------------|
A|----4-----2----0----x------------------------------------------------------------|
E|----2-----0----x----x------------------------------------------------------------|
Verse
e|-----------------------------|
B|-----------------------------|
G|-----------------77-----7-7--|
D|---44-x--444-----77--x--7-7--|
A|---44-x--444-----55--x--5-5--|
E|---22-x--222-----xx--x--x-x--|

Prechorus is the same as the intro
[ Tab from: http://www.guitartabs.cc/tabs/r/ryan_cabrera/illusions_tab.html ]
chorus
e|--0----0---------0---------------------------0-------------------|
B|--2----0---------3---------------------------2-------------------|
G|--2----1---------2---------------------------2-------------------|
D|--2----2----4----0---------------------------2-------------------|
A|--0----2----4----x---------------------------0-------------------|
E|--x----0----2----x-------after third chorus -x  once then intro--|

Int
e|---------------------------------------------------------------------------------|
B|---------------------------------------------------------------------------------|
G|--------------77-----------------------------------------------------------------|
D|---55-x-55----77--77-------------------------------------------------------------|
A|---55-x-55----55--77-------------------------------------------------------------|
E|---33-x-33----xx--55-------------------------------------------------------------|

thats pretty much the whole song...figure out the tempo and whatnot on your own..
in the chorus section the A chord (x02220) is played once in transition to the intro
you can supplement chords for example in the inter. you can play G-D-A instead of
the power chords obviously, same goes for the verse where you can play the F# then E
then the bar for A (577) and D (x577)
this is my first posted tab so let me know what you think peace
Comments