Ryan Cabrera - Fall Baby Fall Chords & Tabs

 

Fall Baby Fall Chords & Tabs

Ryan Cabrera Chords & Tabs

Version: 1 Type: Tab

Fall Baby Fall Tab

   
Artist: Ryan Cabrera
Song: Fall Baby Fall
Tuning: Standard

CAPO on 5th fret

INTRO:

e|--0----3----3----3----0----3----3--|
b|--0----3----3----3----0----3----3--|
G|--0----2----0----0----0----0----0--|
D|--2----0----0----2----2----0----2--|
A|--2----0----2----3----2----2----3--|
E|--0----2----3----x----0----3----x--|

VERSE:

Am, Dsus

CHORUS:
[ Tab from: http://www.guitartabs.cc/tabs/r/ryan_cabrera/fall_baby_fall_tab.html ]
e|--3----3----3----3----|           |--3--|
b|--3----3----3----3----|           |--4--|
G|--0----2----0----0----|   END ON: |--5--|
D|--2----0----2----0----|           |--5--|
A|--3----0----2----2----|           |--3--|
E|--x----x----0----3----|           |--x--|

BRIDGE:

e|--3----3----3----3----3----0----3--|
b|--3----3----3----3----3----0----3--|
G|--0----2----0----2----0----2----0--|
D|--2----0----2----0----0----1----2--|
A|--3----0----2----0----2----2----2--|
E|--x----x----0----2----3----x----0--|