Ryan Cabrera - Exit To Exit Chords & Tabs

 

Exit To Exit Chords & Tabs

Ryan Cabrera Chords & Tabs

Version: 2 Type: Tab 0 ratings
1 star 2 stars 3 stars 4 stars 5 stars
comments

Exit To Exit Tab

wow there were no real correct tabs for this song, they were all to high, here is the way it
is really, played please rate.


verse
------------------------------------------------------------------------|
------------------------------------------------------------------------|
---8-8-8-8--------------6-6-6-6-----------4-4-4-4-----------------------|
---8-8-8-8---4-4-4-4----6-6-6-6-----------4-4-4-4-----------------------|
---6-6-6-6---4-4-4-4----4-4-4-4-----------2-2-2-2-----------------------|
-------------2-2-2-2----------------------------------------------------|
[ Tab from: http://www.guitartabs.cc/tabs/r/ryan_cabrera/exit_to_exit_tab_ver_2.html ]
Pre-chrous
------------------------------------------------------------------------|
------------------------------------------------------------------------|
---8-8-8-8--------------4-4-4-4-----------6-6-6-6-----------------------|
---8-8-8-8--4-4-4-4-----4-4-4-4-----------6-6-6-6-----------------------|
---6-6-6-6--4-4-4-4-----2-2-2-2-----------4-4-4-4-----------------------|
------------2-2-2-2-----------------------------------------------------|

Chorus
------------------------------------------------------------------------|
------------------------------------------------------------------------|
---------------6-6-6-6------8-8-8-8-----4-4-4-4-------------------------|
--4-4-4-4------6-6-6-6------8-8-8-8-----4-4-4-4-------------------------|
--4-4-4-4------4-4-4-4------6-6-6-6-----2-2-2-2-------------------------|
--2-2-2-2---------------------------------------------------------------|x3

after 3 times play this
-------------------------------------------------------------------------|
-------------------------------------------------------------------------|
-------------------------------4-------6---------------------------------|
----6-6-6-------9------6-------4-------6---------------------------------|
----6-6-6-------9------6-------2-------4---------------------------------|
----4-4-4-------7------4-------------------------------------------------|
   so i try                    exit    exit

enjoy
Comments