Ryan Cabrera - Echo Park Chords & Tabs

 

Echo Park Chords & Tabs

Ryan Cabrera Chords & Tabs

Version: 1 Type: Tab 0 ratings
1 star 2 stars 3 stars 4 stars 5 stars
comments

Echo Park Tab

pretty cool song
learn it
play it
rock it out


verse

---------------------------------------|
---------------------------------------|
---------7-----------------------------|
---------7-------------7---------------|
---------5-------------7---------------|
-----------------------5---------------|  x8


pre-chrorus
[ Tab from: http://www.guitartabs.cc/tabs/r/ryan_cabrera/echo_park_tab.html ]
-----------------------------------------------------|
-----------------------------------------------------|
----------------7---------------------------9--------|
----4-----------7------------7--------------9--------|
----4-----------5------------7--------------7--------|
----2------------------------5-----------------------| x2


Chorus
-----------------------------------------------------|
-----------------------------------------------------|
----4----------7----------------------------9--------|
----4----------7------------7---------------9--------|
----2----------5------------7---------------7--------|
----------------------------5------------------------|

that is it...rock it out
Comments