Ryan Adams - Wonderwall Chords & Tabs

 

Wonderwall Chords & Tabs

Ryan Adams Chords & Tabs

Version: 1 Type: Tab 0 ratings
1 star 2 stars 3 stars 4 stars 5 stars
comments

Wonderwall Tab

Date: Sun, 3rd October
From: Boris Brentnall


Artist: Ryan Adams
Album: Love is Hell Pt. 1
Song: Wonderwall


 
standard tuning; capo on 3rd fret
 
play the riffs in this order: r1 (5x), r2, r1 (3x), r2, r3, r4 (4x)
then the whole song repeats, and in the end r4 repeats numerous times...
 

r1
e||--------0--------------0-------|--------0--------------0-------||
B||----3-----3---3----3-----3---3-|----3-----3---3----3-----3---3-||
G||------0-----0--------0-----0---|------0-----0--------0-----0---||
D||-------------------------------|--0----------------------------||
A||-------------------------------|-----------------0-------------||
E||--0--------------3-------------|-------------------------------||
 
 
r2
e||--------0--------------0-------|----------------0-----------------||
B||----3-----3---3----3-----3---3-|----3---3---3-------3---3---3---3-||
G||------0-----0--------0-----0---|------0-------0-------0-------0---||
D||-----------------0-------------|----------------------------------||
A||--3----------------------------|----------------------------------||
E||-------------------------------|--0-------0-------0-------0-------||
 
 
r3
e||--------0--------------0-------|--------0-------------0-------||
B||----3-----3---3----3-----3---3-|----------3---3---3-----3---3-||
G||------0-----0--------0-----0---|------------0-------0-----0---||
D||-----------------0-------------|----0h2---------2-------------||
A||--3----------------------------|------------------------------||
E||-------------------------------|--0---------------------------||
[ Tab from: http://www.guitartabs.cc/tabs/r/ryan_adams/wonderwall_tab.html ]
e||--------0--------------0-------|----------------------------------||
B||----3-----3---3----3-----3---3-|----3---3---3---3---3---3---3---3-||
G||------0-----0--------0-----0---|------0-------0-------0-------0---||
D||-----------------0-------------|----------------------------------||
A||--3----------------------------|----------------------------------||
E||-------------------------------|--0-------0-------0-------0-------||

e||--------0--------------0-------|----------------------------------||
B||----3-----3---3----3-----3---3-|----3---3---3---3---3---3---3---3-||
G||------0-----0--------0-----0---|------0-------0-------0-------0---||
D||-----------------0-------------|----------------------------------||
A||--3----------------------------|----------------------------------||
E||-------------------------------|--3-------2-------0-------3-------||

e||--------0--------------0-------|--------0--------------0-------||
B||----3-----3---3----3-----3---3-|----3-----3---3----3-----3---3-||
G||------0-----0--------0-----0---|------0-----0--------0-----0---||
D||-------------------------------|-------------------------------||
A||--0--------------0-------------|--0--------------0-------------||
E||-------------------------------|-------------------------------||
 
 
r4
e||--------0--------------0-------|--------0--------------0-------||
B||----3-----3---3----3-----3---3-|----3-----3---3----3-----3---3-||
G||------0-----0--------0-----0---|------0-----0--------0-----0---||
D||-------------------------------|-------------------------------||
A||--3----------------------------|-------------------------------||
E||-----------------0-------------|--3--------------0-------------||
 
 
the last time you play r4, only play it 3/4 of the way through, then end
on the open E.
 

At the end, the second guitar (standard tuning; capo on 3rd fret)
repeatedly plays:
e||-----------3--0-||
B||--1--0--1-------||
G||-----------0----||
D||--------------2-||
A||--3-------------||
E||----------------||
 
Listen for the timing of everything.
Comments