Rx Bandits - Wrong With Me Chords & Tabs

 

Wrong With Me Chords & Tabs

Rx Bandits Chords & Tabs

Version: 2 Type: Bass Tab 0 ratings
1 star 2 stars 3 stars 4 stars 5 stars
comments

Wrong With Me Bass Tab

-------------------------------------------------------------------------------
		        Wrong With Me - Rx Bandits
-------------------------------------------------------------------------------

By:Tyson Van      tvan@calpoly.edu

Intro
G |----------------------------------|
D |----------------------------------|
A |-3-3-----3-3----------------------|
E |-----3-3-----0-0-1-1--------------|

Verse
G |----------------------------------|
D |-----2-2-2-2----------------------|
A |-3-3---------0-0-----0-2----------|
E |-----------------3-3--------------|
[ Tab from: http://www.guitartabs.cc/tabs/r/rx_bandits/wrong_with_me_btab_ver_2.html ]
                        Ending Variations
G |-------------2-2-0--| |--7--|-----|
D |-----2-2-2-2--------| |-----|--0--|
A |-3-3----------------| |-----|-----|
E |--------------------| |-----|-----|

Prechorus
G |----------------------------------|
D |----------------------------------|
A |-3-3------------------------------|
E |-----3-3-5-5-5-3-1-1-3------------|


Chorus
G |----------------------------------|
D |----------------------------------|
A |-3-3-3----------------------------|
E |-------0-0-0-5-5-5-3-3-3-3--------|


===============================================================================
Comments