Rx Bandits - Who Wouldve Thought Chords & Tabs

 

Who Wouldve Thought Chords & Tabs

Rx Bandits Chords & Tabs

Version: 1 Type: Tab 0 ratings
1 star 2 stars 3 stars 4 stars 5 stars
comments

Who Wouldve Thought Tab

RX Bandits
Who Would've Thought
Progress

Intro:
e----------------------------------------------
B----------------------------------------------
G-11111111111111-7777-14141414141414-13131313--
D--x-x-x-x-x-x-x-xxxx--x-x-x-x-x-x-x--x-x-x-x--
A--9-9-9-9-9-9-9-5555-12121212121212-11111111--
E----------------------------------------------

Verse: part 1
e-222222222222-33-11--
B-222222222222-33-11--
G-333333333333-44-22--
D-444444444444-55-33--
A---------------------
E---------------------

part 2
e-2-2-2-2-555-22222-11--
B-2-2-2-2-555-22222-11--
G-3-3-3-3-666-33333-22--
D-4-4-4-4-777-44444-33--
A-----------------------
E-----------------------

Pre-Chorus: riff
e------------------
B------------------
G------------------
D-----4------------
A-------4-5-5-4-0--
E-2-2--------------

e--------------------------
B--------------------------
G-4444-6666-7777-99999999--
D-4444-6666-7777-99999999--
A-2222-4444-5555-77777777--
E--------------------------

Chorus:
e--------------
B--------------
G----9--11--7--
D-7--9--11--7--
A-7--7---9--5--
E-5------------
[ Tab from: http://www.guitartabs.cc/tabs/r/rx_bandits/who_wouldve_thought_tab.html ]
e-------------------------------------
B-------------------------------------
G---------------------------99999999--
D-66666666-77777777-9999999999999999--
A-44444444-55555555-7777777777777777--
E-------------------------------------
    p.m.     p.m.     p.m.

Interlude:
e----------------------------
B----------------------------
G--------------7777777-6666--
D-44-44444444--7777777-6666--
A-44-44444444--5555555-4444--
E-22-22222222----------------

e------------------------------------------------------------------------------
B------------------------------------------------------------------------------
G-2h1-2h1-2h1-2h1-6h4-6h4-6h4-6h4-11h9-11h9-11h9-11h9-14h13-14h13-14h13-14h13--
D------------------------------------------------------------------------------
A------------------------------------------------------------------------------
E------------------------------------------------------------------------------

Outro:
e-5-0---5-4h5h4---4-2-10-9-7-5-4-2--
B-----2---------2----------------2--
G--------------------------------2--
D--------------------------------4--
A-----------------------------------
E-----------------------------------
Comments