Rx Bandits - Decrescendo Chords & Tabs

 

Decrescendo Chords & Tabs

Rx Bandits Chords & Tabs

Version: 2 Type: Tab 0 ratings
1 star 2 stars 3 stars 4 stars 5 stars
comments

Decrescendo Tab

THIS IS AN UPDATE TO DECRESCENDO VERSION 2. I LEFT OUT ONE PART WHEN I INITIALLY SENT IT IN.

----------------------------------------------------------------------------
                    Rx Bandits - Decrescendo
----------------------------------------------------------------------------

Tabbed by - Matt Pannella (pannel07@students.rowan.edu or mpProSkooter)
http://users.rowan.edu/~pannel07
Listen Morning Hand, it's your destiny.

BOTH GUITARS

-----------------------------------------------------------------------------|
-----------------------------------------------------------------------------|
--4x4x44x4x444x44xx4x4xxx4x4x4xxxx-------------------------------------------|
--4x4x44x4x444x44xx4x4xxx4x4x4xxxx-------------------------------------------|
--2x2x22x2x222x22xx2x2xxx2x2x2xxxx-------------------------------------------|
-----------------------------------------------------------------------------|


GUITAR 1 INTRO
------22000---------------------------------------------|
------3322233333333-----------2223322222222-------------|
--44-------44444444--x2-------3333333333333---x2--------|  (x2)
--44----------------------44----------------------------|
--22----------------------44----------------------------|
--------------------------22----------------------------|

GUITAR 2 INTRO (come in on 2nd part of GUITAR 1 intro)
-------2200-----------------------7755777777777-----|
-----------333351111-------------------77777777-----|
-----------------------x2-----44--------------------|
--44--------------------------44--------------------|  (x2)
--44--------------------------22--------------------|
--22------------------------------------------------|


VERSE
--22--22-----------------------22---22--------------------------|
--33--22-----------------------33---22--------------------------|
--44--33---7-6-4-44-33---------44---33---9-11-12--12-11-99--666-|
--44--44---------------444-----44---44--------------------------|
--22--44---5-4-2-22-11-444-----22---44---7-9--10--10-9--77--444-|
------22---------------222----------22--------------------------|


GUITAR 1
---------------------|
---------------------|
---------------------|
-2~----4~------------|
-2~----1~------------|
-0~----2~------------|

GUITAR 2
------------------------------------------|
------------------------------------------|
------------------------------------------|
-2222222222222222----4444444444444444-----|
-2222222222222222----1111111111111111-----|
-0000000000000000----2222222222222222-----|
 ................    ................

CHORUS

GUITAR 1
---------------------------------------------------------------------|
---------------------------------------------------------------------|
-44444444444444444444444444444444--2222222222222222------------------|  (x2)
-22255555555555552225555555555555--00044444444444444444444444444444--|
---------------------------------------------------2226666666666666--|

GUITAR 2
---------------------------------------------------------------------|
-44444444444444444444444444444444--2222222222222222------------------|
-44444444444444444444444444444444--22222222222222224444444444444444--|  (x2)
-22222222222222222222222222222222--00000000000000004444444444444444--|
---------------------------------------------------2222222222222222--|


PLAY INTRO 1 TIME
then

VERSE
--22---22--------------------------22---22------------------------|
--33---22--------------------------33---22------------------------|
--44---33---7-9-11-12-11-99--666---44---33---7-9-11-12-11-99--666-|
--44---44--------------------------44---44------------------------|
--22---44---5-7-9--10-9--77--444---22---44---5-7-9--10-9--77--444-|
-------22-------------------------------22------------------------|


GUITAR 1
---------------------|
---------------------|
---------------------|
-2~----4~------------|
-2~----1~------------|
-0~----2~------------|

GUITAR 2
------------------------------------------|
------------------------------------------|
------------------------------------------|
-2222222222222222----4444444444444444-----|
-2222222222222222----1111111111111111-----|
-0000000000000000----2222222222222222-----|

PLAY CHORUS

then

--------------------------------------------|
--------------------------------------------|
--------------------------------------------|
3-333333333333333333333333333333------------|
3-333333333333333333333333333333------------|
1-111111111111111111111111111111------------|
  ..............................

Bridge

GUITAR 1
-565-5------------565-5--------------------------------|
----8-868-8----------8-868-8---------------------------|
---------7-7575-----------7-7575-----------------------|
---------------7----------------7----------------------|
-------------------------------------------------------|
-------------------------------------------------------|

GUITAR 2 (Nothing yet)


GUITAR 1
-353---353---3585-353---353---3585---------------------|
----636---636--------636---636-------------------------|
-------------------------------------------------------|
-------------------------------------------------------|
-------------------------------------------------------|
-------------------------------------------------------|

GUITAR 2
----------------------------------------------------------|
------------6-----------6666-------------6-----------6666-|
----5---5-7----5---5--7----------5---5-7----5---5--7------|
-7----7----------7------------7----7----------7-----------|
----------------------------------------------------------|
----------------------------------------------------------|


GUITAR 1
-565-5------------565-5--------------------------------|
----8-868-8----------8-868-8---------------------------|
---------7-7575-----------7-7575-----------------------|
---------------7----------------7----------------------|
-------------------------------------------------------|
-------------------------------------------------------|

GUITAR 2
----------------------------------------------------------|
-686-6------------686-6-----------------------------------|
----7-7575-575--------7-7575-575--------------------------|
----------7---757-----------7---757-----------------------|
----------------------------------------------------------|
----------------------------------------------------------|


GUITAR 1
-353---353---3585-353---353---5555---------------------|
----636---636--------636---636-------------------------|
-------------------------------------------------------|
-------------------------------------------------------|
-------------------------------------------------------|
-------------------------------------------------------|

GUITAR 2
----------------------------------------------------------|
------------6-----------6666-------------6-----------6666-|
----5---5-7----5---5--7----------5---5-7----5---5--7------|
-7----7----------7------------7----7----------7-----------|
----------------------------------------------------------|
----------------------------------------------------------|


GUITAR 1 (0 = 10, 1 = 11, 2 = 12)
-----0-----------------0-------------------------------|
-0101-101010-0-----0101-101010-0-----------------------|
------------2-202-------------2-202--------------------|
-------------------------------------------------------|
-------------------------------------------------------|
-------------------------------------------------------|

GUITAR 2
----------------------------------------------------------|
-686-6------------686-6-----------------------------------|
----7-7575-575--------7-7575-575--------------------------|
----------7---757-----------7---757-----------------------|
----------------------------------------------------------|
----------------------------------------------------------|


GUITAR 1
-353---353---3585-353---353---3585---------------------|
----636---636--------636---636-------------------------|
-------------------------------------------------------|
-------------------------------------------------------|
-------------------------------------------------------|
-------------------------------------------------------|
[ Tab from: http://www.guitartabs.cc/tabs/r/rx_bandits/decrescendo_tab_ver_2.html ]
GUITAR 2
----------------------------------------------------------|
------------6-----------6666-------------6-----------6666-|
----5---5-7----5---5--7----------5---5-7----5---5--7------|
-7----7----------7------------7----7----------7-----------|
----------------------------------------------------------|
----------------------------------------------------------|


GUITAR 1
-565-5------------565-5--------------------------------|
----8-868-8----------8-868-8---------------------------|
---------7-7575-----------7-7575-----------------------|
---------------7----------------7----------------------|
-------------------------------------------------------|
-------------------------------------------------------|

GUITAR 2
----------------------------------------------------------|
-686-6------------686-6-----------------------------------|
----7-7575-575--------7-7575-575--------------------------|
----------7---757-----------7---757-----------------------|
----------------------------------------------------------|
----------------------------------------------------------|


GUITAR 1
-353---353---3585-353---353---3585-------------------------|
----636---636--------636---636-----888---------------------|
-----------------------------------------------------------|
-----------------------------------555---------------------|
-----------------------------------------------------------|
-----------------------------------------------------------|

GUITAR 2
--------------------------------------------------------------|
------------6-----------6666-------------6-----------6666-888-|
----5---5-7----5---5--7----------5---5-7----5---5--7----------|
-7----7----------7------------7----7----------7-----------555-|
--------------------------------------------------------------|
--------------------------------------------------------------|


GUITAR 1
-----------------------|
-----------------------|
-----------------------|
-2~~----4~~------------|
-2~~----1~~------------|
-0~~----2~~------------|

GUITAR 2
--------------------------------------------------------------------------|
--------------------------------------------------------------------------|
--------------------------------------------------------------------------|
-22222222222222222222222222222222----44444444444444444444444444444444-----|
-22222222222222222222222222222222----11111111111111111111111111111111-----|
-00000000000000000000000000000000----22222222222222222222222222222222-----|
 ................................    ................................


CHORUS

GUITAR 1
---------------------------------------------------------------------|
---------------------------------------------------------------------|
---------------------------------------------------------------------|
-44--------------4444444444444444--2222222222222222------------------|
-22--------------2225555555555555--00044444444444444444444444444444--|
---------------------------------------------------2226666666666666--|

GUITAR 2
---------------------------------------------------------------------|
---------------------------------------------------------------------|
-44--------------4444444444444444--2222222222222222------------------|
-44--------------4444444444444444--22222222222222224444444444444444--|
-22--------------2222222222222222--00000000000000004444444444444444--|
---------------------------------------------------2222222222222222--|


GUITAR 1
---------------------------------------------------------------------|
---------------------------------------------------------------------|
---------------------------------------------------------------------|
-44444444444444444444444444444444--2222222222222222------------------|
-22255555555555552225555555555555--00044444444444444444444444444444--|
---------------------------------------------------2226666666666666--|

GUITAR 2
---------------------------------------------------------------------|
---------------------------------------------------------------------|
-44444444444444444444444444444444--2222222222222222------------------|
-44444444444444444444444444444444--22222222222222224444444444444444--|
-22222222222222222222222222222222--00000000000000004444444444444444--|
---------------------------------------------------2222222222222222--|


GUITAR 1
--------------------------------------------------------------------|
--------------------------------5-----------------------------------|
-------------------4---6-467----------------------------------------|
-44---------------4--4-------------2222222222222222-----------------|
-22--------------2-----------------00044444444444444444444444444444-|
---------------------------------------------------2226666666666666-|

GUITAR 2
---------------------10-9-75-----------------------------------------|
-------------------7--------87---------------------------------------|
-44---------------7----------------2222222222222222------------------|
-44--------------9-----------------22222222222222224444444444444444--|
-22--------------------------------00000000000000004444444444444444--|
---------------------------------------------------2222222222222222--|


GUITAR 2 Keep playing normal chorus during this whole part:

GUITAR 1
----------------------------------------------|
----------------------------------------------|
-44444444-444444444444444-4444444-------------|
----------------------------------------------|
-22222222-222222222222222-2222222-------------|
----------------------------------------------|

(0=10, 1=11, 2=12)
-----------------------------------------------|
-----------------------------------------------|
-7777666611119999222222221111999---------------|
-----------------------------------------------|
-5555444499997777000000009999777---------------|
-----------------------------------------------|

----------------------------------------------|
----------------------------------------------|
-777766667777444-777766667777444--------------|
----------------------------------------------|
-555544445555222-555544445555222--------------|
----------------------------------------------|

(0=10, 1=11, 2=12)
----------------------------------------------|
----------------------------------------------|
-111199997777666-222222221111999--------------|
----------------------------------------------|
-999977775555444-000000009999777--------------|
----------------------------------------------|

----------------------------------------------|
----------------------------------------------|
-777766667777444-777766667777444--------------|
----------------------------------------------|
-555544445555222-555544445555222--------------|
----------------------------------------------|

(0=10, 1=11, 2=12, etc)
----------------------------------------------|
----------------------------------------------|
-111199997777666-222222233333\----------------|
----------------------------------------------|
-999977775555444-000000011111\----------------|
----------------------------------------------|


BOTH GUITARS
---------------------------------------------------------------------|
---------------------------------------------------------------------|
-4-----4----7-62-----4----2-24-----4----7-62-----4----2-2------------|
-4-2-4-42-4-7-64-2-4-42-4-2-24-2-4-42-4-7-64-2-4-42-4-2-2------------| (2x)
-2-2-4-22-4-5-42-2-4-22-4-0-02-2-4-22-4-5-42-2-4-22-4-0-0------------|
---0-2--0-2------0-2--0-2------0-2--0-2------0-2--0-2----------------|


END

-----------------------------------------------------------------------------|
-----------------------------------------------------------------------------|
--4x4x44x4x444x44xx4x4xxx4x4x4-----------------------------------------------|
--4x4x44x4x444x44xx4x4xxx4x4x4-----------------------------------------------|
--2x2x22x2x222x22xx2x2xxx2x2x2-----------------------------------------------|
-----------------------------------------------------------------------------|

-----------------------------------------------------------------------------|
-----------------------------------------------------------------------------|
--4x4x44x4x444x44xx7x7xxx9x9x10/---------------------------------------------|
--4x4x44x4x444x44xx-x-xxx-x-xx/----------------------------------------------|
--2x2x22x2x222x22xx5x5xxx7x7x9/----------------------------------------------|
-----------------------------------------------------------------------------|
Comments