Rx Bandits - Decrescendo Chords & Tabs

 

Decrescendo Chords & Tabs

Rx Bandits Chords & Tabs

Version: 1 Type: Tab 0 ratings
1 star 2 stars 3 stars 4 stars 5 stars
comments

Decrescendo Tab

Rx Bandits
Decrescendo

E  :----------------|----------------|----------------|----------------|
B  :----------------|----------------|----------------|----------------|
G  :4-*-4-*-4-4-*-4-|--4-4-4-*-4-4---|x-4---4-*-x-x-4-|*-4-x-4---4-----|
D  :4-*-4-*-4-4-*-4-|--4-4-4-*-4-4---|x-4---4-*-x-x-4-|*-4-x-4---4-----|
A  :2-*-2-*-2-2-*-2-|--2-2-2-*-2-2---|x-2---2-*-x-x-2-|*-2-x-2---2-----|
E  :----------------|----------------|----------------|----------------|

E  :----------------|----------------|----------------|----------------|
B  :------7-7-5-5-2-|3-3-3-3-3-3-----|-----7-7-5-5-2-3|-3-3-3-3-3------|
G  :4-4-*-7-7-6-6-3-|4-4-4-4-4-4-----|4-4-*7-7-6-6-3-4|-4-4-4-4-4------|
D  :4-4-*-----------|----------------|4-4-*-----------|----------------|
A  :2-2-*-----------|----------------|2-2-*-----------|----------------|
E  :----------------|----------------|----------------|----------------|

E  :----------------|----------------|----------------|----------------|
B  :-----7-7-5-5-3-3|-*-3-5-2-2------|-----7-7-5-5-3-3|-3-3-2-2-2------|
G  :-----7-7-6-6-4-4|---4-6-3-3------|-----7-7-6-6-4-4|-4-4-3-3-3------|
D  :4-4-*-----------|----------------|4-4-*-----------|----------------|
A  :4-4-*-----------|----------------|4-4-*-----------|----------------|
E  :2-2-*-----------|----------------|2-2-*-----------|----------------|

E  :---------------------|----------------|---------------------|-------|
B  :-----12-12-10-10-12-7|-7-7-7-7-7------|-----12-12-10-10-12-7|-7-7-7-|
G  :4-4-*-7--7--6--6--7-4|-4-4-4-4-4------|4-4-*-7--7--6--6--7-4|-4-4-4-|
D  :4-4-*----------------|----------------|4-4-*----------------|-------|
A  :2-2-*----------------|----------------|2-2-*----------------|-------|
E  :---------------------|----------------|---------------------|-------|

E  :---------|----------------|----------------|----------------|--------|
B  :7-7------|-----7-7-5-5-3-3|-*-3-5-2-2------|------7-7-5-5-3-|3-3-3-2-|
G  :4-4------|-----7-7-6-6-4-4|---4-6-3-3------|------7-7-6-6-4-|4-4-4-3-|
D  :---------|4-4-*-----------|----------------|4-4-*-----------|--------|
A  :---------|4-4-*-----------|----------------|4-4-*-----------|--------|
E  :---------|2-2-*-----------|----------------|2-2-*-----------|--------|

E  :---------|----------------|----------------|----------------|-------|
B  :-2-2-----|----------------|----------------|----------------|-------|
G  :-3-3-----|4-4-*-----------|----------------|----------------|-------|
D  :---------|4-4-*-----------|----------------|4-4-*-----------|-------|
A  :---------|2-2-*-----------|----------------|4-4-*-----------|5------|
E  :---------|----------------|----------------|2-2-*-----------|-------|

E  :---------|----------------|----------------|----------------|-------|
B  :---------|----------------|----------------|----------------|-------|
G  :---------|--------------x-|----------------|----------------|-------|
D  :---------|--------------x-|4-4-*-----------|----------------|-------|
A  :-4-------|2-------------x-|2-2-*-----------|----------------|4-4-*--|
E  :---------|----------------|----*-----------|----------------|6-6-*--|
[ Tab from: http://www.guitartabs.cc/tabs/r/rx_bandits/decrescendo_tab.html ]
E  :---------|----------------|----------------|----------------|-------|
B  :---------|----------------|----------------|----------------|-------|
G  :---------|----------------|----------------|----------------|-------|
D  :---------|----------------|4-4-*-----------|----------------|-------|
A  :---------|------4-4-*-4-*-|2-2-*-----------|----------------|-------|
E  :---------|------6-6-*-6-*-|----------------|----------------|-------|

E  :---------|----------------|----------------|----------------|-------|
B  :---------|----------------|----------------|----------------|-------|
G  :---------|----------------|----------------|----------------|-------|
D  :-4-4-*---|----------------|----------------|----------------|-------|
A  :-4-4-*---|----------------|----------------|----------------|-------|
E  :-2-2-*---|----------------|----------------|----------------|-------|

E  :---------|----------------|----------------|----------------|---------|
B  :---------|----------------|----------------|----------------|10-11-10-|
G  :---------|----------------|----------------|----------------|---------|
D  :---------|----------------|----------------|----------------|---------|
A  :---------|----------------|----------------|----------------|---------|
E  :---------|----------------|----------------|----------------|---------|

E  :----------------|------------------------|------------------------|---|
B  :----10----------|------------------------|10-11-10----10----------|---|
G  :-12----12-10-12-|10----10----------------|---------12----12-10-12-|10-|
D  :----------------|---12----12-10-12-10----|------------------------|---|
A  :----------------|---------------------12-|------------------------|---|
E  :----------------|------------------------|------------------------|---|

E  :----------------------|-------------------|--------------8----|-----|
B  :----------------------|8-10-8------x-8-10-|8------x-8-10---10-|8-10-|
G  :----10----------------|-------10-x--------|--10-x-------------|-----|
D  :-12----12-10-12-10----|-------------------|-------------------|-----|
A  :-------------------12-|-------------------|-------------------|-----|
E  :----------------------|-------------------|-------------------|-----|

E  :--------------|--------------8---|------------------------|---------|
B  :8------x-8-10-|8------x-8-10-----|10-11-10----10----------|---------|
G  :--10-x--------|--10-x------------|---------12----12-10-12-|10----10-|
D  :--------------|------------------|------------------------|---12----|
A  :--------------|------------------|------------------------|---------|
E  :--------------|------------------|------------------------|---------|

E  :---------------|------------------------|------------------------|--|
B  :---------------|10-11-10----10----------|------------------------|8-|
G  :---------------|---------12----12-10-12-|10----10----------------|--|
D  :12-10-12-10----|------------------------|---12----12-10-12-10----|--|
A  :------------12-|------------------------|---------------------12-|--|
E  :---------------|------------------------|------------------------|--|

E  :-----------------|--------------8----|-------------------|-----------|
B  :10-8------x-8-10-|8------x-8-10---10-|8-10-8------x-8-10-|8------x-8-|
G  :-----10-x--------|--10-x-------------|-------10-x--------|--10-x-----|
D  :-----------------|-------------------|-------------------|-----------|
A  :-----------------|-------------------|-------------------|-----------|
E  :-----------------|-------------------|-------------------|-----------|

E  :----8---|
B  :-10-----|
G  :--------|
D  :--------|
A  :--------|
E  :--------|
Comments