Rx Bandits - Cornerd Chords & Tabs

 

Cornerd Chords & Tabs

Rx Bandits Chords & Tabs

Version: 1 Type: Tab 0 ratings
1 star 2 stars 3 stars 4 stars 5 stars
comments

Cornerd Tab

RX Bandits - Cornered
www.rxbandits.com
www.rx-bandits.com    
[ Tab from: http://www.guitartabs.cc/tabs/r/rx_bandits/cornerd_tab.html ]
Intro
e|-------------------------------------------------------------------------
B|-------------------------------------------------------------------------|
G|-------------------------------------------------------------------------|
D|-------------------------------------------------------------------------|
A|--7-7-7-7-7-7-7-7-7-7-7-7-7-7-7-7-7-7-7-7-7-7-7-7-7-7-7-7-7-7-7-7--------|
E|--5-5-5-0-3-3-3-3-5-5-5-0-3-3-3-3-5-5-5-0-3-3-3-3-5-5-5-0-3-3-3-3--------|
                              
Verse
e|--5---------------------------------------------------------------------|
B|--5---------------------------------------------------------------------|
G|--6---------------------------------------------------------------------|
D|--7---------------------------------------------------------------------|
A|--7---------------------------------------------------------------------|
E|--5---------------------------------------------------------------------|
                             
Pre-Chorus
e|--2--5----2--4----------------------------------------------------------|
B|--2--5----2--4----------------------------------------------------------|
G|--3--6----3--5----------------------------------------------------------|
D|--4--7----4--6----------------------------------------------------------|
A|--4--7----4--6----------------------------------------------------------|
E|--2--5----2--4----------------------------------------------------------|

                            Chorus- Distortion 
e|-------------------------------------------------------------------------|
B|-------------------------------------------------------------------------|
G|--5-5-/-17-17-17---------------------------------------------------------|
D|--5-5-/-17-17-17---5-5-/-17-17-17---7-7-/-19-19-19---3-3-3--5-5-5--------|
A|--3-3-/-15-15-15---5-5-/-17-17-17---7-7-/-19-19-19---3-3-3--5-5-5--------|
E|-------------------3-3-/-15-15-15---5-5-/-17-17-17---1-1-1--3-3-3--------|

e|-------------------------------------------------------------------------|
B|-------------------------------------------------------------------------|
G|--5-5-xxxx---------------------------------------------------------------|
D|--5-5-xxxx---5-5-xxxx---7-7-xxxx---3-3-3---5-5-5-------------------------|
A|--3-3-xxxx---5-5-xxxx---7-7-xxxx---3-3-3---5-5-5-------------------------|
E|-------------3-3-xxxx---5-5-xxxx---1-1-1---3-3-3-------------------------|

                            Outro
e|-------------------------------------------------------------------------|
B|-------------------------------------------------------------------------|
G|--7----------7-----------------------------------------------------------|
D|--7--7--9----7-----------------------------------------------------------|
A|--5--7--9----5-----------------------------------------------------------|
E|-----5--7----------------------------------------------------------------|
Comments