Rx Bandits - Cornerd Chords & Tabs

 

Cornerd Chords & Tabs

Rx Bandits Chords & Tabs

Version: 1 Type: Bass Tab 0 ratings
1 star 2 stars 3 stars 4 stars 5 stars
comments

Cornerd Bass Tab

Song:Cornerd
Band:RX Bandits
Album:Half Way Between Here and There
By:FutureShooter
E-mail:Futureshooter69@hotmail.com

Key; ~ = slide between fast

Intro: No Bass in intro


Verse: Part 1
G:-----------------------------------------------|
D:-----------------------------------------------|
A:--------------------------------------------7--| x2
E:5--5-5-1-3-5--5-5-8~7~8~7-5--5-5-1-3-5--5-5----|

Verse: Part 2
G:------------------------------|
D:------------------------------|
A:------------------------------|  x1
E:1-1-1--1-1-1--1-1-1--1-1-1----|

Verse: Part 3
G:-----------------------------------------------|
D:-----------------------------------------------|
A:--------------------------------------------7--|  x1
E:5--5-5-1-3-5--5-5-8~7~8~7-5--5-5-1-3-5--5-5----|

[ Tab from: http://www.guitartabs.cc/tabs/r/rx_bandits/cornerd_btab.html ]
Verse: Part 4
G:------------------------------------------|
D:------------------------------------------|
A:------------------------------------------|  x1
E:1-1-1--1-1-1--1-1-1--1-1-1--3-3-3--3-3-3---|

repeat all verse parts once again

Courus:
G:---------------------------------------------|
D:---------------------------------------------|
A:3-3------------------------------------------|  x6
E:-----3-3--5-5---1-1-1-3-3-3------------------|


Bridge:
G:-----------------------------------------------|
D:-----------------------------------------------|
A:--------------------------------------------7--| x2
E:5--5-5-1-3-5--5-5-8~7~8~7-5--5-5-1-3-5--5-5----|

Verse: x1
Courus: x1
Bridge: repeat till end

I am fairly sure this tab right if you say otherwise e-mail the
corections to address at top of the page.

Thrid try are a kick ass band who arn't signed to a lable listen to the music 
first by searching for them on napster, Viva la resistance!
Comments