Rx Bandits - Anyone But You Chords & Tabs

 

Anyone But You Chords & Tabs

Rx Bandits Chords & Tabs

Version: 1 Type: Tab 0 ratings
1 star 2 stars 3 stars 4 stars 5 stars
comments

Anyone But You Tab

RX Bandits - Anyone But You
www.rxbandits.com
www.rx-bandits.com
               
               distortion
Verse-(note: for this part only, all of the single notes are Palm muted.)
e|-------------------------------------------------------------------------|
B|-------------------------------------------------------------------------|
G|----11------11------11------11------6------6------6------6---------4-----|
D|----11------11------11------11------6------6------6------6---------4-----|
A|9-9--9--9-9--9--9-9--9--9-9--9--4-4-4--4-4-4--4-4-4--4-4-4---2--2--2-----|
E|-------------------------------------------------------------------------|
  
                   first ending                 Second Ending
e|-------------------|-------------|---------------------------------------|
B|-------------------|-------------|---------------------------------------|
G|--------4--------4-|-----4-----6-|----6--------6-----4-4/6---------------|
D|--------4--------4-|-----4-----6-|----6--------6-----4-4/6---------------|
A|--2--2--2--2--2--2-|-2-2-2-4-4-4-|--2-4-2-2--2-4-2-2-2-2/4---------------|
E|-------------------|-------------|---------------------------------------|
     
   note:no more palm muting
e|-------------------------------------------------------------------------|
B|------7-7-7-6-6------------7-7-7-6-6-------------------------------------|
G|----------------6-6-6----------------6-----------------------------------|
D|--4-4------------------4-4-----------------------------------------------|
A|-------------------------------------------------------------------------|
E|-------------------------------------------------------------------------|
          Chorus Note: the 3 in () are palm muted
e|-------------------------------------------------------------------------|
B|-------------------------------------------------------------------------|
G|-----------66666666-44444444444444-6----------6666666-44444444444(444)4--|
D|--44444444-66666666-44444444444444-6--4444444-6666666-44444444444(444)4--|
A|--44444444-44444444-22222222222222-4--4444444-4444444-22222222222(222)2--|
E|--22222222----------------------------2222222----------------------------|
          
Bridge-note:very light palm mute;clean             
e|-------------------------------------------------------------------------|
B|-------------------------------------------------------------------------|
G|-------------------------------------------------------------------------|
D|------8--9-8---------3--4-3----------------------------------------------|
A|--6-9--------9---1-4--------4--2-2--2--2-4-4-4--4-6-6-6-8-8-8-9-9-9------|
E|-------------------------------------------------------------------------|

e|--6-6-6-6-6-6-6-6--6-6-6-6-6-6-6-6---------------------------------------|
B|--7-7-7-7-7-7-7-7--6-6-6-6-6-6-6-6---------------------------------------|
G|--8-8-8-8-8-8-8-8--6-6-6-6-6-6-6-6---4-x-x-x-x-4-x-x-x-x-4-x-x-x-x-4-----|
D|-------------------------------------4-x-x-x-x-4-x-x-x-x-4-x-x-x-x-4-----|
A|-------------------------------------2-x-x-x-x-2-x-x-x-x-2-x-x-x-x-2-----|
E|-------------------------------------------------------------------------|
               ending chorus
e|-------------------------------------------------------------------------|
B|-------------------------------------------------------------------------|
G|-----------11/0----------------------------------------------------------|
D|--4--------11/0----------------------------------------------------------|
A|--4---------9/0----------------------------------------------------------|
E|--2----------------------------------------------------------------------|
[ Tab from: http://www.guitartabs.cc/tabs/r/rx_bandits/anyone_but_you_tab.html ]
Comments