Rx Bandits - Andrea Chords & Tabs

 

Andrea Chords & Tabs

Rx Bandits Chords & Tabs

Version: 1 Type: Chords 0 ratings
1 star 2 stars 3 stars 4 stars 5 stars
comments

Andrea Chords

   
Rx Bandits - Andrea
www.rxbandits.com
www.rx-bandits.com

:Intro/First half of verse:
  em    D         G         A

e|--7-7--5-5--x-x--3-3--x-x--5-5--x-x-|
B|--8-8--7-7--x-x--3-3--x-x--5-5--x-x-|
G|--9-9--7-7--x-x--4-4--x-x--6-6--x-x-|
D|--9-9--7-7--x-x--5-5--x-x--7-7--x-x-|
A|--7-7--5-5--x-x--5-5--x-x--7-7--x-x-|
E|-----------------3-3-------5-5------|

repeat

:Second half of verse:
Same chords, but faster ska beat, no pick scrapes in between.


:Chorus:
(f#)       (E)            (D)   (E)
"I know the answer to this question..."

   f#m  E   D 
[ Tab from: http://www.guitartabs.cc/tabs/r/rx_bandits/andrea_crd.html ]
e|---9---7---5---   You'll have to figure out the
B|--10---9---7---   strumming for yourself.
G|--11---9---7---   
D|--11---9---7---
A|---9---7---5---
E|---------------


:Bridge:

e|---9---12--|--9---9--12p9--9---9--|---9---9---12--|----11--11--11--|
B|--10---10--|-10--10--10---10--10--|--10--10---10--|----10--10--10--|
G|---9----9--|--9---9---9----9---9--|---9---9----9--|-----9---9---9--|
D|--11---11--|-11--11--11---11--11--|--11--11---11--|----10--10--10--|
A|---9----9--|--9---9---9----9---9--|---9---9----9--|--9--9---9---9--|
E|-----------|----------------------|---------------|----------------|

...then he just strums the f#m chord from above, before launching into
the chorus again.
Comments