Rx Bandits - Analog Boy Chords & Tabs

 

Analog Boy Chords & Tabs

Rx Bandits Chords & Tabs

Version: 1 Type: Tab 0 ratings
1 star 2 stars 3 stars 4 stars 5 stars
comments

Analog Boy Tab

   
Tabbed by:Timmy W

Tuning:EADGBd

Intro ( palm muted ) comes in at 0:20

d|----------------------------------------------
B|-----------------------------44---------44----
G|--1111-44-11-3333-66-33-4444----44-4444----44-
D|----------------------------------------------
A|----------------------------------------------
E|----------------------------------------------

d|----------------------------------------------
B|----------------------------------------------
G|-------44---------44----1111-44-11-1111-44-11-
D|--4444----44-4444----44-----------------------
A|----------------------------------------------
E|----------------------------------------------

d|-----------------------------------44---------
B|-----------------------------44---------44----
G|--1111-44-11-3333-66-33-4444----44----44---44-
D|----------------------------------------------
A|----------------------------------------------
E|----------------------------------------------

d|----------------------------------------------
B|----------------------------------------------
G|-------44---------44----1111-44-11-1111-44-11-
D|--4444----44-4444----44-----------------------
A|----------------------------------------------
E|----------------------------------------------

Verse 1 ( ska upbeat strokes )
d|--5-5--7-7--8-8-8-8--0-0-0-0--5-5-5-5---------
B|--4-4--7-7--7-7-7-7--0-0-0-0--4-4-4-4---------
G|----------------------------------------------
D|----------------------------------------------
A|----------------------------------------------
E|----------------------------------------------

d|--7-7--8-8--12-12-12-12--0-0-0-0--------------
B|--7-7--7-7--12-12-12-12--0-0-0-0--------------
G|----------------------------------------------
D|----------------------------------------------
A|----------------------------------------------
E|----------------------------------------------

Chorus ( not sure about number of strumms on each note )
d|----------------------------------------------
B|----------------------------------------------
G|--4-----8---8---------------------------------
D|--4-4-6-8-2-8-2-4-----------------------------  X4
A|--2-4-6-6-2-6-2-4-----------------------------
E|----2-4---0---0-2-----------------------------

Verse 2 ( palm muted for this part )
d|----------------------4-----------4-------9---
B|---------4----------4---4-------4---4---4-----
G|--1111-4---41--3333--------4444-------4-------
D|----------------------------------------------
A|----------------------------------------------
E|----------------------------------------------
[ Tab from: http://www.guitartabs.cc/tabs/r/rx_bandits/analog_boy_tab.html ]
d|---------------------------------------------------
B|---------4------------4------------4------------4--
G|-------4---4--------4---4--------4---4--------4---4
D|--4444-------4-4444-------4-6666-------6-6666------
A|---------------------------------------------------
E|---------------------------------------------------

Still verse 2 but not palm muted ( Ska stokes again )
d|--5-5-5--7-7--12-12-12-12-12-12-12-12-12-12-12-12--
B|--4-4-4--7-7--9--9--9--9--9--9--12-12-12-12-12-12--
G|---------------------------------------------------
D|---------------------------------------------------
A|---------------------------------------------------
E|---------------------------------------------------

Then chorus X4 again

Ska interlude ( ska strokes )
d|--5-5h8--3--5p3-5-8-7-7-7h8-------------------------
B|--4------2------0-7-7-7-7---------------------------
G|----------------------------------------------------
D|---------------------------------------------------- X4
A|----------------------------------------------------
E|----------------------------------------------------

d|----------------------------------------------------
B|----------------------------------------------------
G|----4-----------------------------------------------
D|-2--4--4--2--6--4-----------------------------------  X2
A|-2--2--4--2--6--4-----------------------------------
E|-0-----2--0--4--2-----------------------------------
   so     far    gone

Then chorus X6

2nd guitar ( play this during chorus on the 2nd and 3rd times )
d|---------------------------------------------------
B|---------------------------------------------------
G|--4--6--8--11-9--8--9--6---------------------------
D|--x--x--x--x--x--x--x--x---------------------------
A|--2--4--6--9--7--6--7--4---------------------------
E|---------------------------------------------------

2nd guitar on 5th and 6th time
d|---------------------------------------------------
B|---------------------------------------------------
G|--4-4-4-4-6-6-6-6-8-8-8-8-9-9-9-9------------------
D|--x-x-x-x-x-x-x-x-x-x-x-x-x-x-x-x------------------
A|--2-2-2-2-4-4-4-4-6-6-6-6-7-7-7-7------------------
E|---------------------------------------------------

After chorus ( back to 1st guitar again )
d|---------------------------------------------------
B|---------------------------------------------------
G|----------------4----------------------------------
D|--2-2-6-4--2-2--4-4--2-2-6-4-----------------------
A|--2-2-6-4--2-2--2-4--2-2-6-4-----------------------
E|--0-0-4-2--0-0----2--0-0-4-2-----------------------

And end on ( 2nd guitar again )
d|---------------------------------------------------
B|---------------------------------------------------
G|--4-4-4-4-11-11-11-11-13-13-13-13--11-11-11-11-----
D|--x-x-x-x-x--x--x--x--x--x--x--x---x--x--x--x------
A|--2-2-2-2-9--9--9--9--11-11-11-11--9--9--9--9------
E|---------------------------------------------------

And thats it. A great song from a great band written by the great Timmy W.

Ps "No Jake"

| /  slide up
| \  slide down
| h  hammer-on
| p  pull-off
| ~  vibrato
| +  harmonic
| x  Mute note
===============================================================================
Comments