Rx Bandits - All The Time Chords & Tabs

 

All The Time Chords & Tabs

Rx Bandits Chords & Tabs

Version: 1 Type: Tab 0 ratings
1 star 2 stars 3 stars 4 stars 5 stars
comments

All The Time Tab

*tabbed by jacetheace55

pm - palm mute
\  - slide
h  - hammer on
p  - pull off
~  - let ring out

x
x  - scratching
x

7x
7x  -  mute strings after strum
5x

e|---0-----------0-----------0--------7-0-0-8-0-0-0---------------0---------
B|-----0-----------3-----------0------------------------3-----------0-------
G|-------5~----------4~----------5~-----------------4-----4~----------5~----
D|-7-----------5-----------7--------------------------5---------7-----------
A|--------------------------------------------------------------------------
E|--------------------------------------------------------------------------

e|---0-----------0---------3~-----------------------------------------------
B|-----3-----------0-------3~-----------------------------------------------
G|-------4~----------5~----4~-----------------------------------------------
D|-5-----------7-----------5~-----------------------------------------------
A|--------------------------------------------------------------------------
E|--------------------------------------------------------------------------


Verse  "Friday Night, everybody's getting happy..."
e|---0-----------0-------------0--------7-0-0-8-0-0-0----------------x-x-x--
B|-----0-----------3-------------0------------------------3----------x-x-x--
G|-------5~----------4~------------5~-----------------4-----4~-------x-x-x--
D|-7-----------5-----------5h7--------------------------5------------x-x-x--
A|-------------------------------------------------------------------x-x-x--
E|-------------------------------------------------------------------x-x-x--

e|-5x--5x--5x--5x--3x--3x--3x--3x--5x--5x--5x--5x---------------------------
B|-5x--5x--5x--5x--3x--3x--3x--3x--5x--5x--5x--5x---------------------------
G|-5x--5x--5x--5x--4x--4x--4x--4x--5x--5x--5x--5x--12~----------------------
D|-------------------------------------------------12~----------------------
A|-------------------------------------------------10~-----/pickslide-------
E|---------------------------------------------------------/----------------

Chorus  (3x) "Oh, it's all the time, it's all by myself..."
e|--------------------------------------------------------------------------
B|--------------------------------------------------------------------------
G|-----------5-5-5-5-7-7-7-7--------------5-5-5-5-4-4-4-4-------------------
D|-7---5-5---5-5-5-5-7-7-7-7-7-7---5-5----5-5-5-5-5-5-5-5-------------------
A|-7---5-5---3-3-3-3-5-5-5-5-7-7---5-5----3-3-3-3-2-2-2-2-------------------
E|-5---3-3-------------------5-5---3-3--------------------------------------
                                          pm.     ...   
Chorus cont'd
e|--------------------------------------------------------------------------
B|--------------------------------------------------------------------------
G|-----------5-5-5-5-7-7-7-7--------------5-5-5-5-5-5-5-5-4-4-4-4-4-4-4-4---
D|-7---5-5---5-5-5-5-7-7-7-7-7-7---5-5----5-5-5-5-5-5-5-5-5-5-5-5-5-5-5-5---
A|-7---5-5---3-3-3-3-5-5-5-5-7-7---5-5----3-3-3-3-3-3-3-3-2-2-2-2-2-2-2-2---
E|-5---3-3-------------------5-5---3-3--------------------------------------
                                          pm.     ...     ...     ...

Post Chorus  (4x)
e|--------------------------------------------------------------------------
B|--------------------------------------------------------------------------
G|--------------------------------------------------------------------------
D|-----2-2-----5-5x---------------------------------------------------------
A|-0-0-----3-3--------------------------------------------------------------
E|--------------------------------------------------------------------------
   pm.     ...

2nd Verse  "Have you ever had to give up something special..."
e|--------------------------------------------------------------------------
B|--------------------------------------------------------------------------
G|--------------------------------------------------------------------------
D|-----2-2-----5-5x----------2-2-----5-5x----------2-2-----5-5x-------------
A|-0-0-----3-3-----------0-0-----3-3-----------0-0-----3-3------------------
E|--------------------------------------------------------------------------
   pm.     ...           ...     ...           ...     ...

e|------------------------5---5x--5x--5x--5x--5x--5x--5x--5x--5x--5x--5x--5x
B|------------------------5---5x--5x--5x--5x--5x--5x--5x--5x--5x--5x--5x--5x
G|------------------------5---5x--5x--5x--5x--5x--5x--5x--5x--5x--5x--5x--5x
D|-----2-2------5--5--5-----------------------------------------------------
A|-0-0-----3-3--------------------------------------------------------------
E|--------------------------------------------------------------------------
   pm.     ...

e|-5x--5x--5x--5x--5x--5x--5x--5x--5x--5x--5x--5x--5x--5x--5x--5------------
B|-5x--5x--5x--5x--5x--5x--5x--5x--5x--5x--5x--5x--5x--5x--5x--5------------
G|-5x--5x--5x--5x--5x--5x--5x--5x--5x--5x--5x--5x--5x--5x--5x--5------------
D|--------------------------------------------------------------------------
A|----------------------------------------------------------------/pickslide
E|----------------------------------------------------------------/---------

Repeat Chorus
[ Tab from: http://www.guitartabs.cc/tabs/r/rx_bandits/all_the_time_tab.html ]
Bridge  "All the tiiiiiiiiiiiiiiiime, all the time...."
e|--------------------------------------------------------------------------
B|--------------------------------------------------------------------------
G|---------------------------------5-5-5-5-5-5-5-5-4-4-4-4-4-4-4-4----------
D|-----2-2-----5-5-----2-2-----5-5-5-5-5-5-5-5-5-5-5-5-5-5-5-5-5-5----------
A|-0-0-----3-3-----0-0-----3-3-----3-3-3-3-3-3-3-3-2-2-2-2-2-2-2-2----------
E|--------------------------------------------------------------------------
   pm.     ...     ...     ...

e|-----0-0-----3-3-----0-0-----3-3------------------------------------------
B|--------------------------------------------------------------------------
G|-2-2-----5-5-----2-2-----5-5-----5-5-5-5-5-5-5-5-4-4-4-4-4-4-4-4----------
D|---------------------------------5-5-5-5-5-5-5-5-5-5-5-5-5-5-5-5----------
A|---------------------------------3-3-3-3-3-3-3-3-2-2-2-2-2-2-2-2----------
E|--------------------------------------------------------------------------
   pm.     ...     ...     ...

e|--------------------------------------------------------------------------
B|--------------------------------------------------------------------------
G|---------------------------------5-5-5-5-5-5-5-5-4-4-4-4-4-4-4-4-2~-------
D|-----2-2-----5-5-----2-2-----5-5-5-5-5-5-5-5-5-5-5-5-5-5-5-5-5-5-2~-------
A|-0-0-----3-3-----0-0-----3-3-----3-3-3-3-3-3-3-3-2-2-2-2-2-2-2-2-0~-------
E|--------------------------------------------------------------------------
   pm.     ...     ...     ...

Slow Part  (3x) "This box of pictures, regrets and memories..."
e|-------7-------8-------7---7--------5------------------10-----------------
B|-----5-------5-------5-------5---------8-------------8--------------------
G|---5-------5-------5-----------5-------------9----------------------------
D|-7---------------------------------------------10-------------------------
A|--------------------------------------------------------------------------
E|--------------------------------------------------------------------------

Slow Part cont'd
e|--------------------------------------------------------------------------
B|--------------------------------------------------------------------------
G|-2-2-2-2-2-2-2-2-2-2-2-2-2-2-2-2------------------------------------------
D|-2-2-2-2-2-2-2-2-2-2-2-2-2-2-2-2-2x--------2x----------------5/-----------
A|-0-0-0-0-0-0-0-0-0-0-0-0-0-0-0-0-2x--------2x-----------------------------
E|---------------------------------0x--------0x-----------------------------
   pm.............................

Repeat Chorus

Outro (3x)  "All the tiiiiiiiiiiiiiiiime, all the time...."
e|--------------------------------------------------------------------------
B|--------------------------------------------------------------------------
G|---------------------------------5-5-5-5-5-5-5-5-4-4-4-4-4-4-4-4----------
D|-----2-2-----5-5-----2-2-----5-5-5-5-5-5-5-5-5-5-5-5-5-5-5-5-5-5----------
A|-0-0-----3-3-----0-0-----3-3-----3-3-3-3-3-3-3-3-2-2-2-2-2-2-2-2----------
E|--------------------------------------------------------------------------
   pm.     ...     ...     ...

Outro cont'd  (4x)                  Outro cont'd
e|---------------------------------|----------------------------------------
B|---------------------------------|----------------------------------------
G|-----------------5-5-5-5-7-7-7-7-|----------------------------------------
D|-7-7-7-7-5-5-5-5-5-5-5-5-7-7-7-7-|-----2-2-----5-5------------------------
A|-7-7-7-7-5-5-5-5-3-3-3-3-5-5-5-5-|-0-0-----3-3----------------------------
E|-5-5-5-5-3-3-3-3-----------------|----------------------------------------
                                     pm.     ...

The groove at the end...
e|-10--12--8--10h12p8------10--------10-----12---8--8--10h12p8------10------
B|---------------------10---------------10----------------------10----------
G|--------------------------------------------------------------------------
D|--------------------------------------------------------------------------
A|--------------------------------------------------------------------------
E|--------------------------------------------------------------------------

e|-13----13--12--------10h12p8-----10-----13----13--12-------10h12p8------10
B|----15--------13-13----------10------------15--------13-13----------------
G|--------------------------------------------------------------------------
D|--------------------------------------------------------------------------
A|--------------------------------------------------------------------------
E|--------------------------------------------------------------------------

e|--------------------------------------------------------------------------
B|-10-------10--------------------------------------------------------------
G|--------------10-----------9------------10---------------10---------------
D|----12------------------------------12-----12--------12-----12------------
A|-------------------12-12--------------------------------------------------
E|--------------------------------------------------------------------------

e|--------------------------------------------------------------------------
B|------10-----------10---------------10-----------10-----------------------
G|---10----10-----10----10---------10----10-----10----10--------------------
D|12-----------12---------------12-----------12-----------------------------
A|----------------------------------------------------...continue-to-fadeout
E|--------------------------------------------------------------------------

lessthanjace18@yahoo.com for any questions
Comments