Ruts - In A Rut Chords & Tabs

 

In A Rut Chords & Tabs

Ruts Chords & Tabs

Version: 2 Type: Bass Tab 0 ratings
1 star 2 stars 3 stars 4 stars 5 stars
comments

In A Rut Bass Tab

In A Rut
========

The Ruts


(Off the "Grin And Bear It" LP, 1980)


    Verse Riff              
G-|---------------------------------|
D-|---------------------------------|
A-|---------------------------------|
E-|-0---0-0-0-5---2-0---0-0-0-5---2-|
    1 & 2 & 3 & 4 & 5 & 6 & 7 & 8 &   


    Verse-To-Chorus Riff                                                   
 G-|---------------------------------|
D-|---------------------------------|
A-|---------------------------------|
E-|-0---0-0-0-5---2-0---0-0-0-5---3-|
    1 & 2 & 3 & 4 & 5 & 6 & 7 & 8 & 
[ Tab from: http://www.guitartabs.cc/tabs/r/ruts/in_a_rut_btab_ver_2.html ]
                                           
    Main Chorus Riff                                                          
 G-|---------------------------------|---------------------------------|
D-|-0---0-0---0-0-0-2---2-2---2-2-2-|---------------------------------|
A-|---------------------------------|-3---3-3---3-3-3-3---3-3---3-3-3-|
E-|---------------------------------|---------------------------------|
    1 & 2 & 3 & 4 & 5 & 6 & 7 & 8 &   1 & 2 & 3 & 4 & 5 & 6 & 7 & 8 &     



    End Of Chorus Fill                                                        
 G-|-----------------|
D-|-----------------|
A-|-0---------------|
E-|-----3---0-------|
    1 & 2 & 3 & 4 &                                                           




(All tabbed by ear - may well be full of mistakes - and probably missing a
few flourishes, turn-arounds and the like. Any corrections, additions of
the guitar part, other Ruts stuff, etc - please e-mail me .....
tobyb@post.almac.co.uk )


Cheers!

Toby Branfoot                                 -=*   tobyb@post.almac.co.uk
*=-


Comments