Rusty - Groovy Dead Chords & Tabs

 

Groovy Dead Chords & Tabs

Rusty Chords & Tabs

Version: 2 Type: Bass Tab 0 ratings
1 star 2 stars 3 stars 4 stars 5 stars
comments

Groovy Dead Bass Tab

Song Title: Groovy Dead
Artist: rusty
----------------------------------------------

GROOVY DEAD
rusty

This song is really easy, and it's fun to play. 


VERSE
G|-------------------------------------------------------
D|-------------------------------------------------------
A|------------------------------1-1-1-1-1-1-1-1-1-1-1-1--
E|-1-1-1-1-1-1-1-1-1-1-1-1-1-----------------------------

CHORUS
G|-------------------------------------------------------
D|-------------------------------------------------------
A|-------------------------------------------------------
E|-8-8-8-8-8---10-10-10-10-10-10---6-6-6-6-6-6-6-6-6-6-6-
[ Tab from: http://www.guitartabs.cc/tabs/r/rusty/groovy_dead_btab_ver_2.html ]
SOLO
G|-------------------------------------------------------
D|-------------------------------------------------------
A|------1-3-1-3-----1-3-1-3------------------------------
E|-1-1----------1-1---------8-8-8-8-8-8--10-10-10--6-6-6-6

ALTERNATE VERSE
This is the same as what the guitar plays
G|-------------------------------------------------------
D|-------------------------------------------------------
A|-------------------------------------------------------
E|-1-1-1-1-1-1-1-1-1--6-6-6-6-6-6--8-8-8--6-6-5-5--------

I'm sure you can string these together.....if you don't have this album
already, BUY IT! Totally rockin' man.

For info, send mail here:

HANDSOME BOY
181 CLinton st.
Toronto, Canada
M6G 2Y4

Tabbed by: Paul Hillier (GrUnGeR)
Email: cornell@istar.ca

1995 Handsome Boy Records. All Rights reserved.
Comments