Rustic Overtones - Feast Or Famine Chords & Tabs

 

Feast Or Famine Chords & Tabs

Rustic Overtones Chords & Tabs

Version: 2 Type: Bass Tab 0 ratings
1 star 2 stars 3 stars 4 stars 5 stars
comments

Feast Or Famine Bass Tab

   
Song: Feast or Famine
Artist: Rustic Overtones
Album: Rooms by the Hour
Tabbed by: Nic (RusticOT5@aol.com)

Tuning: Standard (EADG)

Key: P : pop
     h : hammeron

Intro
G--------------------------------------
D--------------------------------------
A-----4--2--5-----4--2--5--------------
E--5-----------5-----------------------

Chorus/Verse
G--------------------------------------
D--------------------------------------
A--------------4-----------------------
E--3-4-5---5-5-----5-6-7---7-9-10------
[ Tab from: http://www.guitartabs.cc/tabs/r/rustic_overtones/feast_or_famine_btab_ver_2.html ]
Fills (in place of "3-4-5" on E)
G----------------------
D----------------------
A------2-3-3-2---------
E--3-5---------5-3-5---

G----------------
D----------------
A--0-3-0-3-0-----
E----------------

G----------------
D--P3------------
A----------------
E----3-3-4-5-----

G----------------
D----------------
A----0-2---2-----
E--3-----3-------

Fill (in place of "5-6-7" on E)
G----------------
D----------------
A----------------
E--4h5-5h6-7-----

That's pretty much it...there are a lot of slight variatons to the fills or 
pieces of the body but the whole song is pretty much along those 
lines...Questions...Comments...Corrections...email me (RusticOT5@aol.com)...
Comments