Rustic Overtones - Cmon Chords & Tabs

 

Cmon Chords & Tabs

Rustic Overtones Chords & Tabs

Version: 1 Type: Tab 0 ratings
1 star 2 stars 3 stars 4 stars 5 stars
comments

Cmon Tab

Intro/Chorus:
e------------------------------------------------------------
b------------------------------------------------------------
g----7-6-6-2-4---12-11-11-14-9----7-6-6-2-4---12-11-11-14-9--
d----7-6-6-2-4---12-11-11-14-9----7-6-6-2-4---12-11-11-14-9--
a----5-4-4-0-2---10--9--9-12-7----5-4-4-0-2---10--9--9-12-7--
e------------------------------------------------------------
[ Tab from: http://www.guitartabs.cc/tabs/r/rustic_overtones/cmon_tab.html ]
OR:
e--------------------------------------------------
b--------------------------------------------------
g----7-6-6-2-4----------------7-6-6-2-4------------
d----7-6-6-2-4---5-4-4-7-2----7-6-6-2-4---5-4-4-7-2
a----5-4-4-0-2---5-4-4-7-2----5-4-4-0-2---5-4-4-7-2
e----------------3-2-2-5-0----------------3-2-2-5-0


Verse:
e------------------------------------------------
b------------------------------------------------
g------------------------------------------------
d----9---------9---------------7---------9-------
a------9-5-------9-5-------------7-4-------9-5---
e----------7---------7(/9\7)---------5---------7-

Jam:
e-------------------------------------
b-------------------------------------
g-------------------------------------
d-------------------------------------
a------------7-5-6-7----7-7-9-10-(9)--
e--7-5-6-7----------------------------
Comments