Rusted Root - Laugh As The Sun Chords & Tabs

 

Laugh As The Sun Chords & Tabs

Rusted Root Chords & Tabs

Version: 2 Type: Tab 0 ratings
1 star 2 stars 3 stars 4 stars 5 stars
comments

Laugh As The Sun Tab

   
#----------------------------------PLEASE NOTE---------------------------------#
#This file is the author's own work and represents their interpretation of the #
#song. You may only use this file for private study, scholarship, or research. #
#------------------------------------------------------------------------------#
#


From jwjenks@ix.netcom.com Thu May  8 17:36:43 1997
Date: Sun, 04 May 1997 15:12:01 -0500
From: Jeff Jenks 
To: guitar@olga.net
Subject: Laugh As The Sun(rusted root)

TAB: "Laugh As The Sun" by Rusted Root

Album: WHEN I WOKE
Track #: 11
transcriber: jmk269@postoffice.ptd.net (joseph kozak)
Submitted By: Jeff Jenks(jwjenks@ix.netcom.com)

Laugh As The Sun

Tuning:(low to high) E, A, D, G, A, D

Intro:
       Dm
                                                               ~~~~~~~~
D--3-------3^2^0------12--10----------12--10--0--------14-----15--------------|
A-----------------------------------------------------------------------------|
G-----------------------------------------------------------------------------|
D-----------------------------------------------------------------------------|
A-----------------------------------------------------------------------------|
E-----------------------------------------------------------------------------|
     3/4      Full      3/4
D----10^-------7^------------------------------------------10^12-----10--12---|
A-----------------------3^------------3--3--0--3----3\0-----------------------|
G-----------------------------------------------------------------------------|
D-----------------------------------------------------------------------------|
A-----------------------------------------------------------------------------|
E-----------------------------------------------------------------------------|

D--0----12---10^12----10--12----0----12---10^12----10--12----0---12--10^12----|
A-----------------------------------------------------------------------------|
G-----------------------------------------------------------------------------|
D-----------------------------------------------------------------------------|
A-----------------------------------------------------------------------------|
E-----------------------------------------------------------------------------|

D---10--12----0---12---10^12---10--12----0---12--10^12---10--12---0--12--10^12-|
A------------------------------------------------------------------------------|
G------------------------------------------------------------------------------|
D------------------------------------------------------------------------------|
A------------------------------------------------------------------------------|
E------------------------------------------------------------------------------|

D---10--12-----15---14---------14--14--14--14--14--14-----14\12-----12--12--12-|
A------------------------------------------------------------------------------|
G------------------------------------------------------------------------------|
D------------------------------14--14--14--14--14--14-----14\12-----12--12--12-|
A------------------------------------------------------------------------------|
E------------------------------------------------------------------------------|

D--12\-----10/12-------15\14---------14--14--14\--------12\10------10----10\---|
A------------------------------------------------------------------------------|
G------------------------------------------------------------------------------|
D--12\-----10/12-------15\14---------14--14--14\--------12\10------10----10\---|
A------------------------------------------------------------------------------|
E------------------------------------------------------------------------------|
      1/4                   1/4            1/4    1/4
1/4
D--0--3^----0------------0--3^----0------------0--3^---0-----------0--3^---0---|
A-------------0---3^2^0--------------0--0--3^------------0---3^2^0-------------|
G------------------------------------------------------------------------------|
D------------------------------------------------------------------------------|
A------------------------------------------------------------------------------|
E------------------------------------------------------------------------------|
                1/4                  1/4          1/4
1/4
D--12--12\---0--3^---0------------0--3^---0-------3^---0------------0--3^---0--|
A----------------------0---3^2^0------------0------------0---3^2^0-------------|
G------------------------------------------------------------------------------|
D------------------------------------------------------------------------------|
A------------------------------------------------------------------------------|
E------------------------------------------------------------------------------|

D-------------------|
A--0---3^2^0--------|
G-------------------|
D-------------------|
A-------------------|
E-------------------|

Verse:(4x's)
  Dm
       1/4                  1/4                  1/4
1/4
D--0---3^---0------------0--3^---0------------0--3^---0------------0--3^---0----|
A-------------0---3^2^0------------0---3^2^0------------0---3^2^0------------0--|
G-------------------------------------------------------------------------------|
D-------------------------------------------------------------------------------|
A-------------------------------------------------------------------------------|
E-------------------------------------------------------------------------------|

D--------------------|
A---3^2^0------------|
G--------------------|
D--------------------|
A--------------------|
E--------------------|

Chorus: (2x's)
  C5           D5         C5             D5           C5            D5

D------3--------------0--------3-----------------0---------3---------------0---|
A--3--------0---3----------3----------0---3------------3---------0---3---------|
G------------------------------------------------------------------------------|
D------------------------------------------------------------------------------|
A------------------------------------------------------------------------------|
E------------------------------------------------------------------------------|
   C5               D5
                                                              Full
D--------3------------------0--------|
-------------------------------------|
A---3------------0---3---------------|
---3----------3^---------------------|
G------------------------------------|
-------------------------------------|
D------------------------------------|
-------------------------------------|
A------------------------------------|
-------------------------------------|
E------------------------------------|
-------------------------------------|


Interlude:
  D5

D--0---12^0--10^0---10--12---0---12^0--10^0---10--12----0---15^0-14^0-15^0--|
A---------------------------------------------------------------------------|
G---------------------------------------------------------------------------|
D---------------------------------------------------------------------------|
A---------------------------------------------------------------------------|
E---------------------------------------------------------------------------|

D--14^0-15^0-14^0-15^0-14^0-15^0-14^0-15^0-14^0-10^0--12\-----8------8--8-8-|
A-------------------------------------------------------------0------0--0-0-|
G---------------------------------------------------------------------------|
D---------------------------------------------------------------------------|
A---------------------------------------------------------------------------|
E---------------------------------------------------------------------------|

D--7^8^7--6----5-7--7-0--5----7-7--5-------------|
A--0----------------------------------7----------|
G------------------------------------------------|
D------------------------------------------------|
A------------------------------------------------|
E------------------------------------------------|


Bridge:
         D5                                             A5

D---------------3------------------2----------------3----7----7--7---7-7--7---7-|
A--3--3--3------------0--0--0-----------0--0--0----------0----0--0---0-0--0---0-|
G-------------------------------------------------------------------------------|
D--0--0--0------0-----0--0--0------0----0--0--0-----0---------------------------|
A-------------------------------------------------------------------------------|
E-------------------------------------------------------------------------------|

D--7--7---7---7---7--9--9---9--9--10---10---10----10--10--10---10--10---10--10-|
A--0--0---0---0---0--0--0---0--0---0----0----0-----0---0---0----0---0----0---0-|
G------------------------------------------------------------------------------|
D------------------------------------------------------------------------------|
A------------------------------------------------------------------------------|
E------------------------------------------------------------------------------|

D--10---10--10---10---10/12--12--12---12--9--9---9--9---9---9---9--9---9--9--9-|
A---0----0---0----0----0------0---0----0--0--0---0--0---0---0---0--0---0--0--0-|
G------------------------------------------------------------------------------|
D------------------------------------------------------------------------------|
A------------------------------------------------------------------------------|
E------------------------------------------------------------------------------|

D---9--9---9---9---9--9--10\--7---7-------------7---7--7--7---7--7--7---7--7--7-|
A---0--0---0---0---0--0---0---0---0---0--0---0--0---0--0--0---0--0--0---0--0--0-|
G-------------------------------------------------------------------------------|
D-------------------------------------------------------------------------------|
A-------------------------------------------------------------------------------|
E-------------------------------------------------------------------------------|
                   Dm

D--7--7--7---7--7--12---12--12---12---12--12--12--12--12---12--12---12---12--12-|
A--0--0--0---0--0---0----0---0----0----0---0---0---0---0----0---0----0----0---0-|
G-------------------------------------------------------------------------------|
D-------------------------------------------------------------------------------|
A-------------------------------------------------------------------------------|
E-------------------------------------------------------------------------------|
                                         F

D---12---12--12--12-----14--14--14--14--15----15--15---15---15-----15--15---15--|
A----0----0---0---0------0---0---0---0---0-----0---0----0----0------0---0----0--|
G-------------------------------------------------------------------------------|
D-------------------------------------------------------------------------------|
A-------------------------------------------------------------------------------|
E-------------------------------------------------------------------------------|
                                           Em

D---15---15--15---14---15---14---15---15---14---14--14---14---14---14--14--14--|
A----0----0---0----0----0----0----0----0----0----0---0----0----0----0---0---0--|
G------------------------------------------------------------------------------|
D------------------------------------------------------------------------------|
A------------------------------------------------------------------------------|
E------------------------------------------------------------------------------|
                                                             Dm

D---14---14---14--14---14--14--14--14--14--14--15----12--12--12---12--12--12--|
A----0----0----0---0----0---0---0---0---0---0---0-----0---0---0----0---0---0--|
G-----------------------------------------------------------------------------|
D-----------------------------------------------------------------------------|
A-----------------------------------------------------------------------------|
E-----------------------------------------------------------------------------|

D---12---12--12--12--12--12---12--12---12---12--12--12---12--12--12---12--12--|
A----0----0---0---0---0---0----0---0----0----0---0---0----0---0---0----0---0--|
G-----------------------------------------------------------------------------|
D-----------------------------------------------------------------------------|
A-----------------------------------------------------------------------------|
E-----------------------------------------------------------------------------|

D--12--12--12--12--12---15----12--12----10--10--10--10--10--12--12--12----15----|
A---0---0---0---0---0----0--0--0---0--0--0---0---0---0---0---0---0---0-----0--0-|
G-------------------------------------------------------------------------------|
D-------------------------------------------------------------------------------|
A-------------------------------------------------------------------------------|
E-------------------------------------------------------------------------------|

D---12--12----10--10--10--10--10--12--12--12----15-----12--12----10--10--10--12-|
A----0---0--0--0---0---0---0---0---0---0---0-----0--0---0---0--0--0---0---0---0-|
G-------------------------------------------------------------------------------|
D-------------------------------------------------------------------------------|
A-------------------------------------------------------------------------------|
E-------------------------------------------------------------------------------|

D--12--12--12--14--14--14--14--14--14--14--14--15---14---15---15---15---14---10-|
A---0---0---0---0---0---0---0---0---0---0---0---0----0----0----0----0----0----0-|
G-------------------------------------------------------------------------------|
D-------------------------------------------------------------------------------|
A-------------------------------------------------------------------------------|
E-------------------------------------------------------------------------------|

D--10--10--10--10---10---12--12---15-----12-12--10-10-10-10-10-12-12--12--15---|
A---0---0---0---0----0----0---0----0--0---0--0-0-0--0--0--0--0--0--0---0---0-0-|
G------------------------------------------------------------------------------|
D------------------------------------------------------------------------------|
A------------------------------------------------------------------------------|
E------------------------------------------------------------------------------|

D--12-12--10-10-10-10-10-8-8--8--7--8--7--5--3--2-----------|
A---0--0-0-0--0--0--0--0-0-0--0--0--0--0--0--0--0-----------|
G-----------------------------------------------------------|
D-----------------------------------------------------------|
A-----------------------------------------------------------|
E-----------------------------------------------------------|


2nd Interlude:
  Dm

~~~~~~
D------------7--7--7--7--7---7^5^3---------5--5--4--2---4^2^0--------------|
A----------------------------------------------------------------3^5-------|
G--------------------------------------------------------------------------|
D--------------------------------------------------------------------------|
A--------------------------------------------------------------------------|
E--------------------------------------------------------------------------|

3rd Interlude:
                 D5                       F            G5
     ~~~~~~~~
D--------------------------------------------3-----3---5--5--5--5--5\-----------|
A---3---------------------------------------------------------------------------|
G-------------------------------------------------------------------------------|
D-----------------------------------------------------------------------5---5---|
A----------------5----5----3--5--5--3--5----------------------------------------|
E-------------------------------------------------------------------------------|
                 C5             D5

D-------------------------------------------------------------------------------|
A-------------------------------------------------------------------------------|
G-------------------5-----5--5--5--5--5--5--5--5--7-----------------------------|
D--3--5--5--3--5----------------------------------------------------------------|
A------------------------------------------------------5----5--5--5--3---5---5--|
E-------------------------------------------------------------------------------|
        F5        G5                                    C5          D5

D---------3---3-3-3-3-3-3-3-3-5-------------------------------------------------|
A-------------------------------------------------------------------------------|
G----------------------------------------------------------5----5-5-7-7-7-7-7-7-|
D---------------------------------5---5----3--5--5--3--5------------------------|
A--3--5-------------------------------------------------------------------------|
E-------------------------------------------------------------------------------|


Outro:
   Dm

D--12-------15--14----------12------------------10^12-----12--12--12--12--12----|
A---0--------0---0------0----0----0--0--0--0--0--0---------0---0---0---0---0----|
G-------------------------------------------------------------------------------|
D-------------------------------------------------------------------------------|
A-------------------------------------------------------------------------------|
E-------------------------------------------------------------------------------|

D--15-15-15-15--14--15--14--15------17-17-17-17-17--15--14--15------14--14--12--|
A---0--0--0--0-------0---0---0---0---0--0--0--0--0---0---0---0-------0---0---0--|
G-------------------------------------------------------------------------------|
D-------------------------------------------------------------------------------|
A-------------------------------------------------------------------------------|
E-------------------------------------------------------------------------------|

D--------10-10--10--10-10--0--0-0-2--2-2-3--3-3-2--2-2--8---8-7--8-8--10-10--12-|
A--0---0---------0---0--0--0--0-0-0--0-0-0--0-0-0--0-0--0---0-0--0-0---0--0---0-|
G-------------------------------------------------------------------------------|
D-------------------------------------------------------------------------------|
A-------------------------------------------------------------------------------|
E-------------------------------------------------------------------------------|

D--12--14-14--12-12-12-10-10-10-10--10--12--14-14--12-12-12-10-10-10-----------|
A---0---0--0---0--0--0--0--0--0--0---0---0---0--0---0--0--0--0--0--0--0-0-0-0--|
G------------------------------------------------------------------------------|
D------------------------------------------------------------------------------|
A------------------------------------------------------------------------------|
E------------------------------------------------------------------------------|
[ Tab from: http://www.guitartabs.cc/tabs/r/rusted_root/laugh_as_the_sun_tab_ver_2.html ]
D--/17-17-17-17-17-17-17-17-17---17-17-17---15--15-----14-14-14----12-12-12----|
A----0--0--0--0--0--0--0--0--0----0--0--0----0---0------0--0--0-----0--0--0----|
G------------------------------------------------------------------------------|
D------------------------------------------------------------------------------|
A------------------------------------------------------------------------------|
E------------------------------------------------------------------------------|

D---10-------8--------7----------|
A----0-------0--------0----------|
G---------------------0----------|
D--------------------------------|
A--------------------------------|
E--------------------------------|
Laugh As The Sun

Tuning:(low to high) E, A, D, G, A, D

Intro:
       Dm
                                                               ~~~~~~~~
D--3-------3^2^0------12--10----------12--10--0--------14-----15--------------|
A-----------------------------------------------------------------------------|
G-----------------------------------------------------------------------------|
D-----------------------------------------------------------------------------|
A-----------------------------------------------------------------------------|
E-----------------------------------------------------------------------------|
     3/4      Full      3/4
D----10^-------7^------------------------------------------10^12-----10--12---|
A-----------------------3^------------3--3--0--3----3\0-----------------------|
G-----------------------------------------------------------------------------|
D-----------------------------------------------------------------------------|
A-----------------------------------------------------------------------------|
E-----------------------------------------------------------------------------|

D--0----12---10^12----10--12----0----12---10^12----10--12----0---12--10^12----|
A-----------------------------------------------------------------------------|
G-----------------------------------------------------------------------------|
D-----------------------------------------------------------------------------|
A-----------------------------------------------------------------------------|
E-----------------------------------------------------------------------------|

D---10--12----0---12---10^12---10--12----0---12--10^12---10--12---0--12--10^12-|
A------------------------------------------------------------------------------|
G------------------------------------------------------------------------------|
D------------------------------------------------------------------------------|
A------------------------------------------------------------------------------|
E------------------------------------------------------------------------------|

D---10--12-----15---14---------14--14--14--14--14--14-----14\12-----12--12--12-|
A------------------------------------------------------------------------------|
G------------------------------------------------------------------------------|
D------------------------------14--14--14--14--14--14-----14\12-----12--12--12-|
A------------------------------------------------------------------------------|
E------------------------------------------------------------------------------|

D--12\-----10/12-------15\14---------14--14--14\--------12\10------10----10\---|
A------------------------------------------------------------------------------|
G------------------------------------------------------------------------------|
D--12\-----10/12-------15\14---------14--14--14\--------12\10------10----10\---|
A------------------------------------------------------------------------------|
E------------------------------------------------------------------------------|
      1/4                   1/4            1/4    1/4                 1/4
D--0--3^----0------------0--3^----0------------0--3^---0-----------0--3^---0---|
A-------------0---3^2^0--------------0--0--3^------------0---3^2^0-------------|
G------------------------------------------------------------------------------|
D------------------------------------------------------------------------------|
A------------------------------------------------------------------------------|
E------------------------------------------------------------------------------|
                1/4                  1/4          1/4                  1/4
D--12--12\---0--3^---0------------0--3^---0-------3^---0------------0--3^---0--|
A----------------------0---3^2^0------------0------------0---3^2^0-------------|
G------------------------------------------------------------------------------|
D------------------------------------------------------------------------------|
A------------------------------------------------------------------------------|
E------------------------------------------------------------------------------|

D-------------------|
A--0---3^2^0--------|
G-------------------|
D-------------------|
A-------------------|
E-------------------|

Verse:(4x's)
  Dm
       1/4                  1/4                  1/4                  1/4
D--0---3^---0------------0--3^---0------------0--3^---0------------0--3^---0----|
A-------------0---3^2^0------------0---3^2^0------------0---3^2^0------------0--|
G-------------------------------------------------------------------------------|
D-------------------------------------------------------------------------------|
A-------------------------------------------------------------------------------|
E-------------------------------------------------------------------------------|

D--------------------|
A---3^2^0------------|
G--------------------|
D--------------------|
A--------------------|
E--------------------|

Chorus: (2x's)
  C5           D5         C5             D5           C5            D5

D------3--------------0--------3-----------------0---------3---------------0---|
A--3--------0---3----------3----------0---3------------3---------0---3---------|
G------------------------------------------------------------------------------|
D------------------------------------------------------------------------------|
A------------------------------------------------------------------------------|
E------------------------------------------------------------------------------|
   C5               D5
                                                              Full
D--------3------------------0-------            ---------------------------|
A---3------------0---3--------------            ---3----------3^-----------|
G-----------------------------------            ---------------------------|
D-----------------------------------            ---------------------------|
A-----------------------------------            ---------------------------|
E-----------------------------------            ---------------------------|


Interlude:
  D5

D--0---12^0--10^0---10--12---0---12^0--10^0---10--12----0---15^0-14^0-15^0--|
A---------------------------------------------------------------------------|
G---------------------------------------------------------------------------|
D---------------------------------------------------------------------------|
A---------------------------------------------------------------------------|
E---------------------------------------------------------------------------|

D--14^0-15^0-14^0-15^0-14^0-15^0-14^0-15^0-14^0-10^0--12\-----8------8--8-8-|
A-------------------------------------------------------------0------0--0-0-|
G---------------------------------------------------------------------------|
D---------------------------------------------------------------------------|
A---------------------------------------------------------------------------|
E---------------------------------------------------------------------------|

D--7^8^7--6----5-7--7-0--5----7-7--5-------------|
A--0----------------------------------7----------|
G------------------------------------------------|
D------------------------------------------------|
A------------------------------------------------|
E------------------------------------------------|


Bridge:
         D5                                             A5

D---------------3------------------2----------------3----7----7--7---7-7--7---7-|
A--3--3--3------------0--0--0-----------0--0--0----------0----0--0---0-0--0---0-|
G-------------------------------------------------------------------------------|
D--0--0--0------0-----0--0--0------0----0--0--0-----0---------------------------|
A-------------------------------------------------------------------------------|
E-------------------------------------------------------------------------------|

D--7--7---7---7---7--9--9---9--9--10---10---10----10--10--10---10--10---10--10-|
A--0--0---0---0---0--0--0---0--0---0----0----0-----0---0---0----0---0----0---0-|
G------------------------------------------------------------------------------|
D------------------------------------------------------------------------------|
A------------------------------------------------------------------------------|
E------------------------------------------------------------------------------|

D--10---10--10---10---10/12--12--12---12--9--9---9--9---9---9---9--9---9--9--9-|
A---0----0---0----0----0------0---0----0--0--0---0--0---0---0---0--0---0--0--0-|
G------------------------------------------------------------------------------|
D------------------------------------------------------------------------------|
A------------------------------------------------------------------------------|
E------------------------------------------------------------------------------|

D---9--9---9---9---9--9--10\--7---7-------------7---7--7--7---7--7--7---7--7--7-|
A---0--0---0---0---0--0---0---0---0---0--0---0--0---0--0--0---0--0--0---0--0--0-|
G-------------------------------------------------------------------------------|
D-------------------------------------------------------------------------------|
A-------------------------------------------------------------------------------|
E-------------------------------------------------------------------------------|
                   Dm

D--7--7--7---7--7--12---12--12---12---12--12--12--12--12---12--12---12---12--12-|
A--0--0--0---0--0---0----0---0----0----0---0---0---0---0----0---0----0----0---0-|
G-------------------------------------------------------------------------------|
D-------------------------------------------------------------------------------|
A-------------------------------------------------------------------------------|
E-------------------------------------------------------------------------------|
                                         F

D---12---12--12--12-----14--14--14--14--15----15--15---15---15-----15--15---15--|
A----0----0---0---0------0---0---0---0---0-----0---0----0----0------0---0----0--|
G-------------------------------------------------------------------------------|
D-------------------------------------------------------------------------------|
A-------------------------------------------------------------------------------|
E-------------------------------------------------------------------------------|
                                           Em

D---15---15--15---14---15---14---15---15---14---14--14---14---14---14--14--14--|
A----0----0---0----0----0----0----0----0----0----0---0----0----0----0---0---0--|
G------------------------------------------------------------------------------|
D------------------------------------------------------------------------------|
A------------------------------------------------------------------------------|
E------------------------------------------------------------------------------|
                                                             Dm

D---14---14---14--14---14--14--14--14--14--14--15----12--12--12---12--12--12--|
A----0----0----0---0----0---0---0---0---0---0---0-----0---0---0----0---0---0--|
G-----------------------------------------------------------------------------|
D-----------------------------------------------------------------------------|
A-----------------------------------------------------------------------------|
E-----------------------------------------------------------------------------|

D---12---12--12--12--12--12---12--12---12---12--12--12---12--12--12---12--12--|
A----0----0---0---0---0---0----0---0----0----0---0---0----0---0---0----0---0--|
G-----------------------------------------------------------------------------|
D-----------------------------------------------------------------------------|
A-----------------------------------------------------------------------------|
E-----------------------------------------------------------------------------|

D--12--12--12--12--12---15----12--12----10--10--10--10--10--12--12--12----15----|
A---0---0---0---0---0----0--0--0---0--0--0---0---0---0---0---0---0---0-----0--0-|
G-------------------------------------------------------------------------------|
D-------------------------------------------------------------------------------|
A-------------------------------------------------------------------------------|
E-------------------------------------------------------------------------------|

D---12--12----10--10--10--10--10--12--12--12----15-----12--12----10--10--10--12-|
A----0---0--0--0---0---0---0---0---0---0---0-----0--0---0---0--0--0---0---0---0-|
G-------------------------------------------------------------------------------|
D-------------------------------------------------------------------------------|
A-------------------------------------------------------------------------------|
E-------------------------------------------------------------------------------|

D--12--12--12--14--14--14--14--14--14--14--14--15---14---15---15---15---14---10-|
A---0---0---0---0---0---0---0---0---0---0---0---0----0----0----0----0----0----0-|
G-------------------------------------------------------------------------------|
D-------------------------------------------------------------------------------|
A-------------------------------------------------------------------------------|
E-------------------------------------------------------------------------------|

D--10--10--10--10---10---12--12---15-----12-12--10-10-10-10-10-12-12--12--15---|
A---0---0---0---0----0----0---0----0--0---0--0-0-0--0--0--0--0--0--0---0---0-0-|
G------------------------------------------------------------------------------|
D------------------------------------------------------------------------------|
A------------------------------------------------------------------------------|
E------------------------------------------------------------------------------|

D--12-12--10-10-10-10-10-8-8--8--7--8--7--5--3--2-----------|
A---0--0-0-0--0--0--0--0-0-0--0--0--0--0--0--0--0-----------|
G-----------------------------------------------------------|
D-----------------------------------------------------------|
A-----------------------------------------------------------|
E-----------------------------------------------------------|


2nd Interlude:
  Dm
                                                                   ~~~~~~
D------------7--7--7--7--7---7^5^3---------5--5--4--2---4^2^0--------------|
A----------------------------------------------------------------3^5-------|
G--------------------------------------------------------------------------|
D--------------------------------------------------------------------------|
A--------------------------------------------------------------------------|
E--------------------------------------------------------------------------|

3rd Interlude:
                 D5                       F            G5
     ~~~~~~~~
D--------------------------------------------3-----3---5--5--5--5--5\-----------|
A---3---------------------------------------------------------------------------|
G-------------------------------------------------------------------------------|
D-----------------------------------------------------------------------5---5---|
A----------------5----5----3--5--5--3--5----------------------------------------|
E-------------------------------------------------------------------------------|
                 C5             D5

D-------------------------------------------------------------------------------|
A-------------------------------------------------------------------------------|
G-------------------5-----5--5--5--5--5--5--5--5--7-----------------------------|
D--3--5--5--3--5----------------------------------------------------------------|
A------------------------------------------------------5----5--5--5--3---5---5--|
E-------------------------------------------------------------------------------|
        F5        G5                                    C5          D5

D---------3---3-3-3-3-3-3-3-3-5-------------------------------------------------|
A-------------------------------------------------------------------------------|
G----------------------------------------------------------5----5-5-7-7-7-7-7-7-|
D---------------------------------5---5----3--5--5--3--5------------------------|
A--3--5-------------------------------------------------------------------------|
E-------------------------------------------------------------------------------|


Outro:
   Dm

D--12-------15--14----------12------------------10^12-----12--12--12--12--12----|
A---0--------0---0------0----0----0--0--0--0--0--0---------0---0---0---0---0----|
G-------------------------------------------------------------------------------|
D-------------------------------------------------------------------------------|
A-------------------------------------------------------------------------------|
E-------------------------------------------------------------------------------|

D--15-15-15-15--14--15--14--15------17-17-17-17-17--15--14--15------14--14--12--|
A---0--0--0--0-------0---0---0---0---0--0--0--0--0---0---0---0-------0---0---0--|
G-------------------------------------------------------------------------------|
D-------------------------------------------------------------------------------|
A-------------------------------------------------------------------------------|
E-------------------------------------------------------------------------------|

D--------10-10--10--10-10--0--0-0-2--2-2-3--3-3-2--2-2--8---8-7--8-8--10-10--12-|
A--0---0---------0---0--0--0--0-0-0--0-0-0--0-0-0--0-0--0---0-0--0-0---0--0---0-|
G-------------------------------------------------------------------------------|
D-------------------------------------------------------------------------------|
A-------------------------------------------------------------------------------|
E-------------------------------------------------------------------------------|

D--12--14-14--12-12-12-10-10-10-10--10--12--14-14--12-12-12-10-10-10-----------|
A---0---0--0---0--0--0--0--0--0--0---0---0---0--0---0--0--0--0--0--0--0-0-0-0--|
G------------------------------------------------------------------------------|
D------------------------------------------------------------------------------|
A------------------------------------------------------------------------------|
E------------------------------------------------------------------------------|

D--/17-17-17-17-17-17-17-17-17---17-17-17---15--15-----14-14-14----12-12-12----|
A----0--0--0--0--0--0--0--0--0----0--0--0----0---0------0--0--0-----0--0--0----|
G------------------------------------------------------------------------------|
D------------------------------------------------------------------------------|
A------------------------------------------------------------------------------|
E------------------------------------------------------------------------------|

D---10-------8--------7----------|
A----0-------0--------0----------|
G---------------------0----------|
D--------------------------------|
A--------------------------------|
E--------------------------------|

Enjoy
Comments