Rusted Root - Cruel Sun Chords & Tabs

 

Cruel Sun Chords & Tabs

Rusted Root Chords & Tabs

Version: 1 Type: Tab 0 ratings
1 star 2 stars 3 stars 4 stars 5 stars
comments

Cruel Sun Tab

   
#----------------------------------PLEASE NOTE---------------------------------#
#This file is the author's own work and represents their interpretation of the #
#song. You may only use this file for private study, scholarship, or research. #
#------------------------------------------------------------------------------#
#


From jwjenks@ix.netcom.com Thu May  8 17:37:19 1997
Date: Sun, 04 May 1997 15:09:51 -0500
From: Jeff Jenks 
To: guitar@olga.net
Subject: Cruel Sun(Rusted Root)  Album: WHEN I WOKE Track #: 10 transcriber: jmk269@postoffice.ptd.net 
kozak) Submitted By: Jeff Jenks(jwjenks@ix.netcom.com)

Content-Type: text/plain; charset=us-ascii
Content-Transfer-Encoding: 7bit

TAB: "Cruel Sun" by Rusted Root

Album: WHEN I WOKE
Track #: 4
transcriber: jmk269@postoffice.ptd.net (joseph kozak)
Submitted By: Jeff Jenks(jwjenks@ix.netcom.com)


Chords used in Cruel Sun:
                                             sus2
  Em     E5    Cmaj7   C5     D5   Em(VII)  Dadd6  Csus2  Bsus4  G6

e--0------0------0--------------------0------0-------------0------0----------|
B--0------0------0--------------------8------0------3------0------0----------|
G--0------9------5------5------7------9------7------5------4-----12----------|
D--2------9------5------5------7------9------7------5------4-----12----------|
A--2------7------3------3------5------7------5------3------2-----10----------|
E--0------0---------------------------0--------------------------------------|


Intro:
  Em
e-------------------------------------------------------------------------------|
B-------------------------------------------------------------------------------|
G--2^0--------2^0--------2^0--------2^0-----2--2^0------2^0------2^0--------2^0-|
D-------------------------------------------------------------------------------|
A-------------------------------------------------------------------------------|
E--0----0--0--0----0--0--0----0--0--0----0--0--0-----0--0-----0--0----0--0--0---|
                                   Em
e-------------------------------------------------------------------------------|
B-------------------------------------------------------------------------------|
G--------2^4----------4/5\4--------2^0---------2^0---------2^0---------2^0------|
D-------------------------------------------------------------------------------|
A-------------------------------------------------------------------------------|
E--0--0--0--------0-----------0----0-----0--0--0-----0--0--0-----0--0--0-----0--|
                                                          E5
e-------------------------------------------------------------------------------|
B-------------------------------------------------------------------------------|
G-----2^0------------2--------0----------2--2-----------------2^0---------2^0---|
D-------------------------------------------------------------------------------|
A--------------------------------------------------0---0------------------------|
E--0--0-----0--0--0--0--0--0--0-------0--0--0-------------3---0--------0--0-----|

e-------------------------------------------------------------------------------|
B-------------------------------------------------------------------------------|
G--------2^0---------2--2--2--2--2--2--2--2^0---------2^0---------2--2--2--2--2-|
D-------------------------------------------------------------------------------|
A-------------------------------------------------------------------------------|
E--0--0--0-----0--0--0--0--0--0--0--0--0--0-----0--0--0-----0--0--0--0--0--0--0-|
        E5
e-----------------|
B-----------------|
G-----------------|
D-----------------|
A-----------------|
E-------0---------|


1st Verse:

     See the bloody faces                        lifted to the sky.
  E5                                   Cmaj7           C
C5            B
e-------------------------------------------------------------------------------|
B-------------------------------------------------------------------------0-----|
G--2--------------------------2^0-----2--2---0----------------0--0-----0--------|
D-------------------------------------------------------------------------------|
A----------------------------------------3--------------------3--3--3--3--3--3--|
E--0--------------------------0----0--0-----------------------------------------|
         w/fill 1.
             Do you want to run                   to a future left
behind?
     D5   Esus4                              Cmaj7
e-------------------------------------------------------------------------------|
B-------------------------------------------------------------------------------|
G-----2---2-----------------------2--2--2--2--2---0------------------------2--2-|
D-------------------------------------------------------------------------------|
A--3------------------------------------------3----------------------------3--3-|
E-----0---0-----------------------0--0--0--0------------------------------------|

             I remember asking why,                 there lies
aggression.
   sus2
  Dadd6   E5
Cmaj7                         C
e-------------------------------------------------------------------------------|
B-------------------------------------------------------------------------------|
G--2--2---2----------------------------2--2--2---0-------------------------2--2-|
D-------------------------------------------------------------------------------|
A--3--3--------------------------------------3-----------------------------3--3-|
E---------0----------------------------0--0-------------------------------------|

                 Separation where there should be love.
Power
  Cmaj7  E5                                                   Cmaj7
e-----------------------------------------------------------------------------|
B-----------------------------------------------------------------------------|
G--2--2---2--0--------------------------------------------2^0---2^0--2---0----|
D-----------------------------------------------------------------------------|
A--3--3--------------------------------------------------------------3--------|
E---------0-------------------------------------------------------------------|

  plays while the people die.

e----------------------------------------------|
B----------------------------------0-----------|
G-------------------------------------2--------|
D----------------------------------------------|
A-------------------------------3--3--3--3-----|
E----------------------------------------------|


  Fill 1.
e------0----------------------0------0----------------0--------|
B----0-------------x----------0------0----------------0--------|
G--9---------9----------------5------5----------------7--------|
D---------------------x/------5------5--------x/------7--------|
A-----------------------------3-----------------------5--------|
E--------------------------------------------------------------|


Chorus:

     Let it rain,           and protect us    from this    cruel sun.
   E5            Em(VII)  Cmaj7                            E5
e-------------------------------------------------------------------------------|
B-------------------------------------------------------------------------------|
G--2-------------------------------------------------------2------------2--2--2-|
D-------------------------------------------------------------------------------|
A-------------------------------------------------------------------------------|
E--0-------------------------------------------------------0------------0--0--0-|

         sus2          1.=================================
2.================
        Dadd6   E5     Cmaj7                     Cadd6(sus2)   C  C5
Csus2 Cmaj7
e-------------------------------------------------------------------------------|
B-----------------------------------------------------------------------------3-|
G---2^0----2--2--2--2--2---2---2--2----2-----2-----2--2--2-----2--------------5-|
D-----------------------------------------------------------------------------5-|
A----------------------3---3---3--3----3-----3-----3--3--3-----3----3---------3-|
E---0------0--0--0--0-----------------------------------------------------------|

 =========================

e---------3---------------|
B---------3---------------|
G---------5--5-5----------|
D----5----5--5-5----------|
A----3----3--3-3-3--------|
E----3-------3---3--------|


Bridge:
                                                       sus2
Bsus4                    Cmaj7                        Dadd6
      Open up your eyes          and feel it burn.
                                                                 sus2
Bsus4                                             Cmaj7         Dadd6
      Open up your eyes,    your eyes and let the child learn.

Interlude:
                       sus2
E5   G6    Cmaj7      Dadd6


 E5
e-----14--------------14-------------------------15------------15---------------|
B--12----12----12--------12-12-12-12-12-12----12--------12--------12-12-12---12-|
G-------------------------------------------------------------------------------|
D-------------------------------------------------------------------------------|
A-------------------------------------------------------------------------------|
E-------------------------------------------------------------------------------|
                                                                Cmaj7
e------12--14--------------14----------------------------8\7--8------------------|
B--12--------------12----------12--12---12----12---------x----x-------8/10\8-----|
G--------------------------------------------------------5\4--5-------x----------|
D---------------------------------------------------------------------5----------|
7\5------------------------------------------------------------------------------|
A--------------------------------------------------------------------------------|
E--------------------------------------------------------------------------------|
               E5                                            Cmaj7  D
e------------------------------------------------------------------------15-15-|
B---8------------------------------7/8\7---------7------8----8/------12--------|
G---x-------7--9----9----9--9/-----x-------------x------x----x-----------------|
D---5-------x--x----x----x--x------4/5\4-----x---4------5----5-----------------|
A-----------5--7----7----7--7/-------------------------------------------------|
E------------------------------------------------------------------------------|
                                             Cmaj7
e--15-15-15--14----------14------------12-14-------15-15-15-15-15--14-----------|
B------------------12-------12-12---13-------12-12---------------------12^13^12-|
G-------------------------------------------------------------------------------|
D-------------------------------------------------------------------------------|
A-------------------------------------------------------------------------------|
E-------------------------------------------------------------------------------|
               E5                        B  E  E              Cmaj7
e--12----14-14------15-15-15-15-15--14------14----------12-14------15-15-15-15-|
B-----12---------12----------------------12-------12-13---------12-------------|
G------------------------------------------------------------------------------|
D------------------------------------------------------------------------------|
A------------------------------------------------------------------------------|
E------------------------------------------------------------------------------|
                      E5                                    C5

~~~~~                                   ~~~~~
e-15--14-------------------7^8^7-------------------------------7-x-7^8^7--------|
B-----------12----13-------------8---------------8-------7--8------------8------|
G----------------------------------9-------9--9-------9--------------------9----|
D-------------------------------------------------------------------------------|
A-------------------------------------------------------------------------------|
E-------------------------------------------------------------------------------|
                                                                     E5
                                              ~~~~~
~~~~~
e--x-x-12^13^12--------15--13--12^13^12--------------0-x-x-7-7^8^7--------------|
B---------------------------------------13-------------------------8------------|
G---------------0--14------------------------14----------------------9-----7--9-|
D-------------------------------------------------------------------------------|
A-------------------------------------------------------------------------------|
E-------------------------------------------------------------------------------|
                                                           sus2   w/fill
2.
   ~~                   Cmaj7                             Dadd6   E5
e-------------------------------------------------------------------------------|
B--8--------8-----------8--7--------7-----------7--------7-7/8------8-----------|
G-----x--x/----x-x-7\-------------0-----x-0--------0-------x-x----0-------------|
D----------------------------0--4-----------4^0-------0----4/5-------------4^0--|
A-------------------------------------------------------------------------------|
E-------------------------------------------------------------------------------|

                             Cmaj7                              D5
E5

e-------------------------------------------------------------------------------|
B--7---------7\---------------------5---7---8---7/8-8/10-----8----7------7/8\7--|
G---------------------------------------------------------------7-----7--x------|
D------0--4--------0--4------0--2----------------------------------------4/5\4--|
A-------------------------------------------------------------------------------|
E-------------------------------------------------------------------------------|
         Em                           Cmaj7
e---------------------------------------------------------------------------|
B--5--5--------5/-----7/8\7---7--7----7/8\7---5--5--------5--5--5-----/-----|
G--x--x--------x------x-------x--x----x-------x--x--------x--x--x-----------|
D--2--2--------2/-----4/5\4---4--4----4/5\4---2--2--------2--2--2-----/-----|
A---------------------------------------------------------------------------|
E---------------------------------------------------------------------------|
   E5                                                  Cmaj7
e------15-15-15--15--14---------14-------------14----------15-15-15-15-15--14--|
B--12---------------------12-------12-12-12-13----13---12----------------------|
G------------------------------------------------------------------------------|
D------------------------------------------------------------------------------|
A------------------------------------------------------------------------------|
E------------------------------------------------------------------------------|
                          E5
e-----14----12----14-14--------15-15-15-15-15--14--x---------12------------15--|
B--12----12----13---------12--------------------------12----------12-13-13-----|
G------------------------------------------------------------------------------|
D------------------------------------------------------------------------------|
A------------------------------------------------------------------------------|
E------------------------------------------------------------------------------|
       Cmaj7                                                E5
e------------15-15-15-15-15--14---------14-12-------14------15-12-12-14-12-----|
B--13--12--x-------------------------12-------12-13----12------------------12--|
G------------------------------------------------------------------------------|
D------------------------------------------------------------------------------|
A------------------------------------------------------------------------------|
E------------------------------------------------------------------------------|
                                                       Cmaj7
e--------14-12-------12-15-12-14-12--------12-14-12----------14-12-12-15-12-14-|
B--13-12-------13-12-----------------13-12----------12-13-12-------------------|
G------------------------------------------------------------------------------|
D------------------------------------------------------------------------------|
A------------------------------------------------------------------------------|
E------------------------------------------------------------------------------|
                                          D5       E5
                                                  w/fill 3.
e--12-12-------------14-12-------15-12-14-12-------14-12-------14-12-------15--|
B--------13-12-13-12-------13-12-------------13-12-------13-12-------13-12-----|
G------------------------------------------------------------------------------|
D------------------------------------------------------------------------------|
A------------------------------------------------------------------------------|
E------------------------------------------------------------------------------|
                                                  Cmaj7         D6
E5
                                                   ~~~~~
e--12-14-12-------14-12-------15-12-14-12--------------------------------------|
B-----------13-12-------13-12-------------13-12---13-------12--------10--10-10-|
G------------------------------------------------------------------------------|
D------------------------------------------------------------------------------|
A------------------------------------------------------------------------------|
E------------------------------------------------------------------------------|
                                     B5  Cmaj7
e------------------------------------------------------------------------------|
B--10-10-10--8--x-x-7----8--7---7----------x-10-10-10-10-10--8--x-x-7-----8--7-|
G-----------------------------9---7--7\----------------------------------------|
D------------------------------------------------------------------------------|
A------------------------------------------------------------------------------|
E------------------------------------------------------------------------------|
                          E5
e-------------------------------------------------------------------------------|
B----7--------------10-10-10-10-10-10-10--8--x-x-7^8^7-8-7---7-x-----------x-10-|
G--9---7--7--7---------------------------------------------9-----7-x-7\---------|
D-------------------------------------------------------------------------------|
A-------------------------------------------------------------------------------|
E-------------------------------------------------------------------------------|
     Cmaj7                            D5  E5
e----------------------------------------------------------------0--0--0--0--0-|
B--10-10-10-10-10--8--7--8-----7---7------13----12----------12--12-12-12-12-12-|
G--------------------------------7---------0-----0-----------------------------|
D------------------------------------------0-----------------------------------|
A------------------------------------------------------------------------------|
E------------------------------------------------------------------------------|
                                                               sus2
                         Cmaj7                                Dadd6
e---0--0--0--0--0--0--0--------------------------------------------------------|
B--12-12-12-12-12-12-12--15---15-15----13----12--12-12-12--12-13--13-13---x-13-|
G------0--0--0--0--0--0---0----0-----------0--0------0--0---0--0---0--0------0-|
D------0--0--0--0--0--0---0----0--------------0------0--0---0--0---0--0------0-|
A------------------------------------------------------------------------------|
E------------------------------------------------------------------------------|

E5
Cmaj7
e----------------------0--0------0-0--0--0--0--0--0----------------------------|
B--13---13--12--12--13------15-------15----15-15----13-13-13-13-13-12--12----3-|
G---0----0---0---0---0-------0--------------------------0--0--0--0--0---0----0-|
D---0----0----------------------------------------------0--0--0--0--0---0----0-|
A------------------------------------------------------------------------------|
E------------------------------------------------------------------------------|
                                                  sus2
                                                 Dadd6
E5

1\2
e-------0---0-0-0---0---0-0----0---0---0--0--0---0--0--0--0--0--0--0----0------|
B---3---5---5-5-5---5---8-8----8--10--10-10-10--12-12-12-12-13-13-13---15^-----|
G---0---0-----------0---0-0----0---0---0--0--0---0--0--0--0--0--0--0----0------|
D---0---0---------------0-0----0---0---0--0--0---0--0--0--0--0--0--0----0------|
A------------------------------------------------------------------------------|
E------------------------------------------------------------------------------|
          Cmaj7                          E5
                                              w/fill 4.
e-------------14---------14--------------12-----------15-------15----15--------|
B----------12-------12------12-12-12--12------15---12--------------------------|
G------------------------------------------------------------------------------|
D------------------------------------------------------------------------------|
A------------------------------------------------------------------------------|
E------------------------------------------------------------------------------|
  Cmaj7
e------14---------------------|
B--12-------------------------|
G-----------------------------|
D-----------------------------|
A-----------------------------|
E-----------------------------|


Fill 2.

e--------------0--------0-----0-----0--------------0------0-----------------|
B---------------------0-------0---0------0----------------0-----------------|
G---9-------9-----------------5------------5--------------5------7--7-------|
D---9-----9-------------------5--------------5---------5--5------7--7-------|
A---7-------------------------3----------------------------------5--5-------|
E---0-----------------------------------------------------------------------|

                           harm-----------------------------------------------|
e----------------0---------12-------------------0-----------0-------0---------|
B------------------0--8---------12--------------0-------------------0---------|
G------9--9-----------9------------12-----------5--------------5----5---------|
D------9--9--9-----------------------------x/---5-----5-5--------5--5---------|
A------7--7---------------------------------------------------------3---------|
E--0--------------------------------------------------------------------------|


e---------------------|
B---7-----------------|
G---x--7--7-----------|
D---4--x--x-----------|
A------5--5-----------|
E---------------------|


Fill 3.

e---0---------------0----------0------------------------0----------0-----------|
B---0---------------0------------0-------0---------0--0------0--------0--------|
G---9---------------5------5-------5/7---7-------------------------------------|
D---9---------------5--------------------7-----9---------------------------x\--|
A--------------x/------------------------5-------------------------------------|
E------------------------------------------------------------------------------|

e---------0-----------------0---------------------------0---------0------------|
B---------0----------------------0-----0--0-------------0------0-------0-------|
G--4--4---5---------5------------------5--5-------------9----------------------|
D--4--4---5----------------------------5--5-------------9----------------------|
A--2--2---3----------------------------3--3--x--5--5----7----------------------|
E------------------------------------------------------------------------------|

e--------------0-----------0----------0--0------------------|
B--------------0-----------0----0-----0--0------------------|
G--7---7\------5--------0--5----------5--5-----7------------|
D--x---x-------5-----------5-------5-----5-----7------------|
A--5---5\------3-----------3-------------------5--x---------|
E-------------------------------------------0---------------|


Fill 4.

e------------0-----0--------0-------0-------------------------------|
B--------0-0---0-0----------0----0---------0------------------------|
G---------------------------5-------------------5------0---0--------|
D----9----------------x/----5---------------------------------------|
A---------------------------3---------------------------------------|
E-------------------------------------------------------------------|


Outro-Chorus:
   E5                                   G6           Cmaj7
       Let    it   rain                                       and
protect
e------15-15-15-15-15--14--------14-----------14---------15-15-15-15-15--14-----|
B--12-----------------------12-------12-12-13----13--12----------------------12-|
G-------------------------------------------------------------------------------|
D-------------------------------------------------------------------------------|
A-------------------------------------------------------------------------------|
E-------------------------------------------------------------------------------|
                sus2
               Dadd6          E5                                      G6
 us        from this          cruel sun.
e---14-------------14-----------15-15-15-15--15--14-------14-------------14-----|
B------12-12-12-13-----13----12----------------------12------12-12-13-12----12--|
G-------------------------------------------------------------------------------|
D-------------------------------------------------------------------------------|
A-------------------------------------------------------------------------------|
E-------------------------------------------------------------------------------|
                                                     sus2
           Cmaj7                                    Dadd6
Cmaj7

w/fill 5.
          1.,2.,3.===================================================
4.=====
e------------15-15-15-15-15--14---------14----------14-12--------------------15-|
B--13-12--12----------------------12-------12-13-12-------13-12-13-12----12-----|
G-------------------------------------------------------------------------------|
D-------------------------------------------------------------------------------|
A-------------------------------------------------------------------------------|
E-------------------------------------------------------------------------------|
                                               D5      E5
e--15-15-15-15--14----------14-------------------------------------------------|
B---------------------12----------12--12^13^12-12--12--12^13^12------12^13^12--|
G------------------------------------------------------------------------------|
D------------------------------------------------------------------------------|
A------------------------------------------------------------------------------|
E------------------------------------------------------------------------------|


Fill 5.
[ Tab from: http://www.guitartabs.cc/tabs/r/rusted_root/cruel_sun_tab.html ]
harm-----------------------------------------------------------------------------|
e--------------------------0------0-----0-------0--------0------12----12---------|
B--------------------------0------0-----0----0--0--------0------12-------12------|
G--5---5---5---5---5---5---5------5-----5----7--5--------9-------0----------12---|
D--5---5---5---5---5---5---5------5--5--5----7--5--------9-----------------------|
A--3---3---3---3---3---3---3------3-----3----5--3--------7-----------------------|
E---------------------------------------------------0----0-----------------------|
Chords used in Cruel Sun:
                                             sus2
  Em     E5    Cmaj7   C5     D5   Em(VII)  Dadd6  Csus2  Bsus4  G6

e--0------0------0--------------------0------0-------------0------0----------|
B--0------0------0--------------------8------0------3------0------0----------|
G--0------9------5------5------7------9------7------5------4-----12----------|
D--2------9------5------5------7------9------7------5------4-----12----------|
A--2------7------3------3------5------7------5------3------2-----10----------|
E--0------0---------------------------0--------------------------------------|


Intro:
  Em
e-------------------------------------------------------------------------------|
B-------------------------------------------------------------------------------|
G--2^0--------2^0--------2^0--------2^0-----2--2^0------2^0------2^0--------2^0-|
D-------------------------------------------------------------------------------|
A-------------------------------------------------------------------------------|
E--0----0--0--0----0--0--0----0--0--0----0--0--0-----0--0-----0--0----0--0--0---|
                                   Em
e-------------------------------------------------------------------------------|
B-------------------------------------------------------------------------------|
G--------2^4----------4/5\4--------2^0---------2^0---------2^0---------2^0------|
D-------------------------------------------------------------------------------|
A-------------------------------------------------------------------------------|
E--0--0--0--------0-----------0----0-----0--0--0-----0--0--0-----0--0--0-----0--|
                                                          E5
e-------------------------------------------------------------------------------|
B-------------------------------------------------------------------------------|
G-----2^0------------2--------0----------2--2-----------------2^0---------2^0---|
D-------------------------------------------------------------------------------|
A--------------------------------------------------0---0------------------------|
E--0--0-----0--0--0--0--0--0--0-------0--0--0-------------3---0--------0--0-----|

e-------------------------------------------------------------------------------|
B-------------------------------------------------------------------------------|
G--------2^0---------2--2--2--2--2--2--2--2^0---------2^0---------2--2--2--2--2-|
D-------------------------------------------------------------------------------|
A-------------------------------------------------------------------------------|
E--0--0--0-----0--0--0--0--0--0--0--0--0--0-----0--0--0-----0--0--0--0--0--0--0-|
        E5
e-----------------|
B-----------------|
G-----------------|
D-----------------|
A-----------------|
E-------0---------|


1st Verse:

     See the bloody faces                        lifted to the sky.
  E5                                   Cmaj7           C      C5            B
e-------------------------------------------------------------------------------|
B-------------------------------------------------------------------------0-----|
G--2--------------------------2^0-----2--2---0----------------0--0-----0--------|
D-------------------------------------------------------------------------------|
A----------------------------------------3--------------------3--3--3--3--3--3--|
E--0--------------------------0----0--0-----------------------------------------|
         w/fill 1.
             Do you want to run                   to a future left behind?
     D5   Esus4                              Cmaj7
e-------------------------------------------------------------------------------|
B-------------------------------------------------------------------------------|
G-----2---2-----------------------2--2--2--2--2---0------------------------2--2-|
D-------------------------------------------------------------------------------|
A--3------------------------------------------3----------------------------3--3-|
E-----0---0-----------------------0--0--0--0------------------------------------|

             I remember asking why,                 there lies aggression.
   sus2
  Dadd6   E5                                 Cmaj7                         C
e-------------------------------------------------------------------------------|
B-------------------------------------------------------------------------------|
G--2--2---2----------------------------2--2--2---0-------------------------2--2-|
D-------------------------------------------------------------------------------|
A--3--3--------------------------------------3-----------------------------3--3-|
E---------0----------------------------0--0-------------------------------------|

                 Separation where there should be love.                Power
  Cmaj7  E5                                                   Cmaj7
e-----------------------------------------------------------------------------|
B-----------------------------------------------------------------------------|
G--2--2---2--0--------------------------------------------2^0---2^0--2---0----|
D-----------------------------------------------------------------------------|
A--3--3--------------------------------------------------------------3--------|
E---------0-------------------------------------------------------------------|

  plays while the people die.

e----------------------------------------------|
B----------------------------------0-----------|
G-------------------------------------2--------|
D----------------------------------------------|
A-------------------------------3--3--3--3-----|
E----------------------------------------------|


  Fill 1.
e------0----------------------0------0----------------0--------|
B----0-------------x----------0------0----------------0--------|
G--9---------9----------------5------5----------------7--------|
D---------------------x/------5------5--------x/------7--------|
A-----------------------------3-----------------------5--------|
E--------------------------------------------------------------|


Chorus:

     Let it rain,           and protect us    from this    cruel sun.
   E5            Em(VII)  Cmaj7                            E5
e-------------------------------------------------------------------------------|
B-------------------------------------------------------------------------------|
G--2-------------------------------------------------------2------------2--2--2-|
D-------------------------------------------------------------------------------|
A-------------------------------------------------------------------------------|
E--0-------------------------------------------------------0------------0--0--0-|

         sus2          1.=================================    2.================
        Dadd6   E5     Cmaj7                     Cadd6(sus2)   C  C5 Csus2 Cmaj7
e-------------------------------------------------------------------------------|
B-----------------------------------------------------------------------------3-|
G---2^0----2--2--2--2--2---2---2--2----2-----2-----2--2--2-----2--------------5-|
D-----------------------------------------------------------------------------5-|
A----------------------3---3---3--3----3-----3-----3--3--3-----3----3---------3-|
E---0------0--0--0--0-----------------------------------------------------------|

 =========================

e---------3---------------|
B---------3---------------|
G---------5--5-5----------|
D----5----5--5-5----------|
A----3----3--3-3-3--------|
E----3-------3---3--------|


Bridge:
                                                       sus2
Bsus4                    Cmaj7                        Dadd6
      Open up your eyes          and feel it burn.
                                                                 sus2
Bsus4                                             Cmaj7         Dadd6
      Open up your eyes,    your eyes and let the child learn.

Interlude:
                       sus2
E5   G6    Cmaj7      Dadd6


 E5
e-----14--------------14-------------------------15------------15---------------|
B--12----12----12--------12-12-12-12-12-12----12--------12--------12-12-12---12-|
G-------------------------------------------------------------------------------|
D-------------------------------------------------------------------------------|
A-------------------------------------------------------------------------------|
E-------------------------------------------------------------------------------|
                                                                Cmaj7
e------12--14--------------14----------------------------8\7--8-----------------|
B--12--------------12----------12--12---12----12---------x----x-------8/10\8----|
G--------------------------------------------------------5\4--5-------x---------|
D---------------------------------------------------------------------5/ 7\5----|
A-------------------------------------------------------------------------------|
E-------------------------------------------------------------------------------|
               E5                                            Cmaj7  D
e------------------------------------------------------------------------15-15-|
B---8------------------------------7/8\7---------7------8----8/------12--------|
G---x-------7--9----9----9--9/-----x-------------x------x----x-----------------|
D---5-------x--x----x----x--x------4/5\4-----x---4------5----5-----------------|
A-----------5--7----7----7--7/-------------------------------------------------|
E------------------------------------------------------------------------------|
                                             Cmaj7
e--15-15-15--14----------14------------12-14-------15-15-15-15-15--14-----------|
B------------------12-------12-12---13-------12-12---------------------12^13^12-|
G-------------------------------------------------------------------------------|
D-------------------------------------------------------------------------------|
A-------------------------------------------------------------------------------|
E-------------------------------------------------------------------------------|
               E5                        B  E  E              Cmaj7
e--12----14-14------15-15-15-15-15--14------14----------12-14------15-15-15-15-|
B-----12---------12----------------------12-------12-13---------12-------------|
G------------------------------------------------------------------------------|
D------------------------------------------------------------------------------|
A------------------------------------------------------------------------------|
E------------------------------------------------------------------------------|
                      E5                                    C5
                                   ~~~~~                                   ~~~~~
e-15--14-------------------7^8^7-------------------------------7-x-7^8^7--------|
B-----------12----13-------------8---------------8-------7--8------------8------|
G----------------------------------9-------9--9-------9--------------------9----|
D-------------------------------------------------------------------------------|
A-------------------------------------------------------------------------------|
E-------------------------------------------------------------------------------|
                                                                     E5
                                              ~~~~~                  ~~~~~
e--x-x-12^13^12--------15--13--12^13^12--------------0-x-x-7-7^8^7--------------|
B---------------------------------------13-------------------------8------------|
G---------------0--14------------------------14----------------------9-----7--9-|
D-------------------------------------------------------------------------------|
A-------------------------------------------------------------------------------|
E-------------------------------------------------------------------------------|
                                                           sus2   w/fill 2.
   ~~                   Cmaj7                             Dadd6   E5
e-------------------------------------------------------------------------------|
B--8--------8-----------8--7--------7-----------7--------7-7/8------8-----------|
G-----x--x/----x-x-7\-------------0-----x-0--------0-------x-x----0-------------|
D----------------------------0--4-----------4^0-------0----4/5-------------4^0--|
A-------------------------------------------------------------------------------|
E-------------------------------------------------------------------------------|

                             Cmaj7                              D5       E5

e-------------------------------------------------------------------------------|
B--7---------7\---------------------5---7---8---7/8-8/10-----8----7------7/8\7--|
G---------------------------------------------------------------7-----7--x------|
D------0--4--------0--4------0--2----------------------------------------4/5\4--|
A-------------------------------------------------------------------------------|
E-------------------------------------------------------------------------------|
         Em                           Cmaj7
e---------------------------------------------------------------------------|
B--5--5--------5/-----7/8\7---7--7----7/8\7---5--5--------5--5--5-----/-----|
G--x--x--------x------x-------x--x----x-------x--x--------x--x--x-----------|
D--2--2--------2/-----4/5\4---4--4----4/5\4---2--2--------2--2--2-----/-----|
A---------------------------------------------------------------------------|
E---------------------------------------------------------------------------|
   E5                                                  Cmaj7
e------15-15-15--15--14---------14-------------14----------15-15-15-15-15--14--|
B--12---------------------12-------12-12-12-13----13---12----------------------|
G------------------------------------------------------------------------------|
D------------------------------------------------------------------------------|
A------------------------------------------------------------------------------|
E------------------------------------------------------------------------------|
                          E5
e-----14----12----14-14--------15-15-15-15-15--14--x---------12------------15--|
B--12----12----13---------12--------------------------12----------12-13-13-----|
G------------------------------------------------------------------------------|
D------------------------------------------------------------------------------|
A------------------------------------------------------------------------------|
E------------------------------------------------------------------------------|
       Cmaj7                                                E5
e------------15-15-15-15-15--14---------14-12-------14------15-12-12-14-12-----|
B--13--12--x-------------------------12-------12-13----12------------------12--|
G------------------------------------------------------------------------------|
D------------------------------------------------------------------------------|
A------------------------------------------------------------------------------|
E------------------------------------------------------------------------------|
                                                       Cmaj7
e--------14-12-------12-15-12-14-12--------12-14-12----------14-12-12-15-12-14-|
B--13-12-------13-12-----------------13-12----------12-13-12-------------------|
G------------------------------------------------------------------------------|
D------------------------------------------------------------------------------|
A------------------------------------------------------------------------------|
E------------------------------------------------------------------------------|
                                          D5       E5
                                                  w/fill 3.
e--12-12-------------14-12-------15-12-14-12-------14-12-------14-12-------15--|
B--------13-12-13-12-------13-12-------------13-12-------13-12-------13-12-----|
G------------------------------------------------------------------------------|
D------------------------------------------------------------------------------|
A------------------------------------------------------------------------------|
E------------------------------------------------------------------------------|
                                                  Cmaj7         D6       E5
                                                   ~~~~~
e--12-14-12-------14-12-------15-12-14-12--------------------------------------|
B-----------13-12-------13-12-------------13-12---13-------12--------10--10-10-|
G------------------------------------------------------------------------------|
D------------------------------------------------------------------------------|
A------------------------------------------------------------------------------|
E------------------------------------------------------------------------------|
                                     B5  Cmaj7
e------------------------------------------------------------------------------|
B--10-10-10--8--x-x-7----8--7---7----------x-10-10-10-10-10--8--x-x-7-----8--7-|
G-----------------------------9---7--7\----------------------------------------|
D------------------------------------------------------------------------------|
A------------------------------------------------------------------------------|
E------------------------------------------------------------------------------|
                          E5
e-------------------------------------------------------------------------------|
B----7--------------10-10-10-10-10-10-10--8--x-x-7^8^7-8-7---7-x-----------x-10-|
G--9---7--7--7---------------------------------------------9-----7-x-7\---------|
D-------------------------------------------------------------------------------|
A-------------------------------------------------------------------------------|
E-------------------------------------------------------------------------------|
     Cmaj7                            D5  E5
e----------------------------------------------------------------0--0--0--0--0-|
B--10-10-10-10-10--8--7--8-----7---7------13----12----------12--12-12-12-12-12-|
G--------------------------------7---------0-----0-----------------------------|
D------------------------------------------0-----------------------------------|
A------------------------------------------------------------------------------|
E------------------------------------------------------------------------------|
                                                               sus2
                         Cmaj7                                Dadd6
e---0--0--0--0--0--0--0--------------------------------------------------------|
B--12-12-12-12-12-12-12--15---15-15----13----12--12-12-12--12-13--13-13---x-13-|
G------0--0--0--0--0--0---0----0-----------0--0------0--0---0--0---0--0------0-|
D------0--0--0--0--0--0---0----0--------------0------0--0---0--0---0--0------0-|
A------------------------------------------------------------------------------|
E------------------------------------------------------------------------------|
   E5                                                                      Cmaj7
e----------------------0--0------0-0--0--0--0--0--0----------------------------|
B--13---13--12--12--13------15-------15----15-15----13-13-13-13-13-12--12----3-|
G---0----0---0---0---0-------0--------------------------0--0--0--0--0---0----0-|
D---0----0----------------------------------------------0--0--0--0--0---0----0-|
A------------------------------------------------------------------------------|
E------------------------------------------------------------------------------|
                                                  sus2
                                                 Dadd6                  E5
                                                                       1\2
e-------0---0-0-0---0---0-0----0---0---0--0--0---0--0--0--0--0--0--0----0------|
B---3---5---5-5-5---5---8-8----8--10--10-10-10--12-12-12-12-13-13-13---15^-----|
G---0---0-----------0---0-0----0---0---0--0--0---0--0--0--0--0--0--0----0------|
D---0---0---------------0-0----0---0---0--0--0---0--0--0--0--0--0--0----0------|
A------------------------------------------------------------------------------|
E------------------------------------------------------------------------------|
          Cmaj7                          E5
                                              w/fill 4.
e-------------14---------14--------------12-----------15-------15----15--------|
B----------12-------12------12-12-12--12------15---12--------------------------|
G------------------------------------------------------------------------------|
D------------------------------------------------------------------------------|
A------------------------------------------------------------------------------|
E------------------------------------------------------------------------------|
  Cmaj7
e------14---------------------|
B--12-------------------------|
G-----------------------------|
D-----------------------------|
A-----------------------------|
E-----------------------------|


Fill 2.

e--------------0--------0-----0-----0--------------0------0-----------------|
B---------------------0-------0---0------0----------------0-----------------|
G---9-------9-----------------5------------5--------------5------7--7-------|
D---9-----9-------------------5--------------5---------5--5------7--7-------|
A---7-------------------------3----------------------------------5--5-------|
E---0-----------------------------------------------------------------------|

                           harm-----------------------------------------------|
e----------------0---------12-------------------0-----------0-------0---------|
B------------------0--8---------12--------------0-------------------0---------|
G------9--9-----------9------------12-----------5--------------5----5---------|
D------9--9--9-----------------------------x/---5-----5-5--------5--5---------|
A------7--7---------------------------------------------------------3---------|
E--0--------------------------------------------------------------------------|


e---------------------|
B---7-----------------|
G---x--7--7-----------|
D---4--x--x-----------|
A------5--5-----------|
E---------------------|


Fill 3.

e---0---------------0----------0------------------------0----------0-----------|
B---0---------------0------------0-------0---------0--0------0--------0--------|
G---9---------------5------5-------5/7---7-------------------------------------|
D---9---------------5--------------------7-----9---------------------------x\--|
A--------------x/------------------------5-------------------------------------|
E------------------------------------------------------------------------------|

e---------0-----------------0---------------------------0---------0------------|
B---------0----------------------0-----0--0-------------0------0-------0-------|
G--4--4---5---------5------------------5--5-------------9----------------------|
D--4--4---5----------------------------5--5-------------9----------------------|
A--2--2---3----------------------------3--3--x--5--5----7----------------------|
E------------------------------------------------------------------------------|

e--------------0-----------0----------0--0------------------|
B--------------0-----------0----0-----0--0------------------|
G--7---7\------5--------0--5----------5--5-----7------------|
D--x---x-------5-----------5-------5-----5-----7------------|
A--5---5\------3-----------3-------------------5--x---------|
E-------------------------------------------0---------------|


Fill 4.

e------------0-----0--------0-------0-------------------------------|
B--------0-0---0-0----------0----0---------0------------------------|
G---------------------------5-------------------5------0---0--------|
D----9----------------x/----5---------------------------------------|
A---------------------------3---------------------------------------|
E-------------------------------------------------------------------|


Outro-Chorus:
   E5                                   G6           Cmaj7
       Let    it   rain                                       and     protect
e------15-15-15-15-15--14--------14-----------14---------15-15-15-15-15--14-----|
B--12-----------------------12-------12-12-13----13--12----------------------12-|
G-------------------------------------------------------------------------------|
D-------------------------------------------------------------------------------|
A-------------------------------------------------------------------------------|
E-------------------------------------------------------------------------------|
                sus2
               Dadd6          E5                                      G6
 us        from this          cruel sun.
e---14-------------14-----------15-15-15-15--15--14-------14-------------14-----|
B------12-12-12-13-----13----12----------------------12------12-12-13-12----12--|
G-------------------------------------------------------------------------------|
D-------------------------------------------------------------------------------|
A-------------------------------------------------------------------------------|
E-------------------------------------------------------------------------------|
                                                     sus2
           Cmaj7                                    Dadd6                Cmaj7
                                                                       w/fill 5.
          1.,2.,3.===================================================    4.=====
e------------15-15-15-15-15--14---------14----------14-12--------------------15-|
B--13-12--12----------------------12-------12-13-12-------13-12-13-12----12-----|
G-------------------------------------------------------------------------------|
D-------------------------------------------------------------------------------|
A-------------------------------------------------------------------------------|
E-------------------------------------------------------------------------------|
                                               D5      E5
e--15-15-15-15--14----------14-------------------------------------------------|
B---------------------12----------12--12^13^12-12--12--12^13^12------12^13^12--|
G------------------------------------------------------------------------------|
D------------------------------------------------------------------------------|
A------------------------------------------------------------------------------|
E------------------------------------------------------------------------------|


Fill 5.
                                                               harm--------------|
e--------------------------0------0-----0-------0--------0------12----12---------|
B--------------------------0------0-----0----0--0--------0------12-------12------|
G--5---5---5---5---5---5---5------5-----5----7--5--------9-------0----------12---|
D--5---5---5---5---5---5---5------5--5--5----7--5--------9-----------------------|
A--3---3---3---3---3---3---3------3-----3----5--3--------7-----------------------|
E---------------------------------------------------0----0-----------------------|

enjoy,
Joe
Comments