Rusted Root - Cat Turned Blue Chords & Tabs

 

Cat Turned Blue Chords & Tabs

Rusted Root Chords & Tabs

Version: 2 Type: Tab 0 ratings
1 star 2 stars 3 stars 4 stars 5 stars
comments

Cat Turned Blue Tab

   
#----------------------------------PLEASE NOTE---------------------------------#
#This file is the author's own work and represents their interpretation of the #
#song. You may only use this file for private study, scholarship, or research. #
#------------------------------------------------------------------------------#
#

Tuning (low to high)
 D, A, D, G, A, D


Cat Turned Blue

Intro:

D----------0----0--------5-----x---7--------------------5------------0-------5--|
A----------0----0--------3-----x---5---------------------------------0-----x-3--|
D----------2----2------------------5------------2--------------------2----------|
G-----0----0----0------------------5------0-----0-------3------------0----------|
A-----0-----------------------------------0--------------------0----------------|
D-----0-----------------------------------0--------------------0----------------|

D---x-5-7--------0---------------------------------0-----x--------5---x--7------|
A-----3-5--------0------x--------------------------0------------x-3---x--5------|
D----------------2------x--------------------------2---------------------5----2-|
G----------------0---------3---3-3-----2------0----0---------x-----------5----0-|
A------------0-------------1^0-1-1-----0------0---------------------------------|
D------------0--------------------------------0---------------------------------|

D--0--------5/--------0------------5----7--7------------0-----------------------|
A--0--------3/--------0----x-------3----x--5--x--x------0----------------0--0---|
D--2------x-----------2---------------------------------2--------------3--------|
G--0------------------0-----------------------------0---0---x--3---3---3--------|
A------x--------------------------------------------0----------1^0-1^0-1^0----0-|
D-----------------0------------x--------------------0---------------------------|

Verse:

D---------0----------------5-------7-----------0---------------5/---------0-----|
A---------0--------x---------------5-----------0-----x-----x--------------0-----|
D---------2------------------------5-----------2--------------------------2-----|
G---------0------------3-----------------------0--------------------------0-----|
A--0----------0-------------------------------------------------------0---------|
D------0-----------------------------------0--------------------------0---------|

D--------5-----5--7-------------0-------------------0------------------0--------|
A-----------x--3--5-------------0----x----------------0----------------0--------|
D-----x-----------5-----x--2----2----------3------------2--2-----------2---2----|
G--x-----------------------0----0-------3--------3------2--2----x--0---0------0-|
A--------------------------0------------1---------------------------------------|
D-------------------------------------------------------------------------------|

D---------5--------7--7----x-----0--------------5-----5/----------0---------5---|
A------------------5--5--x-------0-----x--------------------------0---x---x-3---|
D------0-----x--5--5--5-------2--2--2-----------0-----------------2---------3---|
G-----------------------------0--0--0-----------------------0--0--0-----x---3---|
A--x--------------------------------------x--3----------------------------------|
D-------------------------------------------------------------------------------|

D--7-7-7--------------0-----------------0---------------|
A--5-5-5---x-x--------0-----------------0---------------|
D----5-5--------------2---x-----------------2--2--------|
G----5-5--------------0------3-3-3-3--------2--2--------|
A-----------------0----------1-1-1-0--------------------|
D-----------------0-------------------------------------|

Pre-Chorus:
           1/2                           1/2

D----------15^----------------5-5----12--12^------------------0-----------------|
A------12--12^---x\-----------5-5----10--10^---x\--------0----0--------------12-|
D-------x-----------x--x-5-x--5-5-----0---------------2--------------2---x-x--x-|
G--x-0--0---------------------5-5--x--0-----------x---x-----------2--2--------0-|
A-----------------------------------------------------------------0-------------|
D-------------------------------------------------------------------------------|
  1/2                             1/2                                1/2

D-15^-----------3------5----------12^----------0-0-------------------15^--------|
A-12^--------3--3----x-5----x-10--10^----x-----0-0-----0---------12--12^----x---|
D----------------------0-------x---------x-x-x-3-3--------2-2-----x-------------|
G--------x---------------------0-----------x-x-3-3--x-----2-2-----0-------------|
A---------------------------------------------------------0-0-----0-------------|
D-------------------------------------------------------------------------------|
                         1/2                                          1/2

D--3---------------------12^---------------------0--0--0--------15----15^-------|
A--3-----5-5-------------10^------------------x--0--0--0--------12----12^-------|
D--------0-0--------2----------x\------3--3---------2--2------------------------|
G---------------x---0------------------3--3---------2--2---x-----------------x\-|
A--------------------------------------1--1-------------------------------------|
D-------------------------------------------------------------------------------|
                             1/2
[ Tab from: http://www.guitartabs.cc/tabs/r/rusted_root/cat_turned_blue_tab_ver_2.html ]
D----------3-------5---------12^----------------------0--0--0--------|
A-------x--3-------5---------10^-----10---------------0--0--0--------|
D---------------------------------------x--------3-------2--2--------|
G--x--------------------x-----------------x---3--3-------2--2--------|
A---------------------------------------------1--1-------0--0--------|
D--------------------------------------------------------------------|

Chorus:

D-------------------------------------------------------------------------------|
A-------------------0-----------------------------------------------------0--0--|
D--3---3---3--3--3--2------2------2--2--2--2--2-----5--5--5-------3--3-------3--|
G--3---3---3--3--3--2------2------2--2--2--2--2-----5--5--5-------3--3-------3--|
A--1---1---1--1--1--0------0------0--0--0--0--0-----3--3--3----x--1--1-------0--|
D-------------------------------------------------------------------------------|

D--0-----0---------0----------5-----7----x------0------------5------------------|
A--0--0--0---------0----------3-----5-----------0----x-----3-3---x-0-0----------|
D--3--3--3---------2--------------x-5-----------2----------3-3-----0-0-----3--3-|
G--3--3--3---------0----------------------------0----------3-3-------------3--3-|
A--0--0--0---------------x------------------------------x------------------1--1-|
D-----------0--0----------------------------0-----------------------------------|

D-------------------------------------------------------------------------------|
A-------------------------------------------------------------------------------|
D----3--3-----2----2-----x--2--2--2--2--5------5---5--5-----------3-----3--3--3-|
G----3--3-----2----2-----x--2--2--2--2--5------5---5--5--x--3--x--3--x--3--3--3-|
A----1--1--x--0----0--------0--0--0--0--3------3---3--3--x--1--x--1--x--1--1--1-|
D-------------------------------------------------------------------------------|

D---------------0--------0------------------------------------------------------|
A---------------0-----x--0----------------0--0----------------------------------|
D------3---3----3--------2----2----2------------5---5---5------3---3---3--5--5--|
G------3---3----3--------2----2----2------------5---5---5---x--3---3---3--5--5--|
A------1---1----1--------0------------0---------3---3---3------1---1---1--3--3--|
D--0----------------------------------------------------------------------------|

D-------------|
A--0--0-------|
D-------------|
G-------------|
A-------------|
D-------------|

Fills:

Fill 1. (verse 2)

D--------------0--------3--x--3--5----x--x--7-----x--0---0---------x--x--x--5---|
A-----0--------0---0--0------------------------------0---0----------------------|
D---------2----2-------------------------------------2---2----------------------|
G--x------0----0-------------------------------------0---0---0--x---------------|
A---------0---------------------------------------------------------------------|
D---------0---------------------------------------------------------------------|

D---x--x-----0--0---0---0--0--x-----5----7--7--7----x------0-------------------|
A---------x-----0---0-----------------------5--5-----------0-------------------|
D---------------2---2-----------------------0--0-----------2----2--2-----------|
G---------------0---0------------x---------------------0---0----0--0--3--3--3--|
A------------------------------------------------------0--------------1--1--1--|
D------------------------------------------------------0-----------------------|

D------------------------|
A------------------------|
D-----------0--0---------|
G--3-----2--2--2---------|
A--1-----0--0--0---------|
D------------------------|

Fill 2.
         1/2                                  1/2

D--------15^--------------3---------5---------12^-------------------------------|
A--------12^----x\--------3---------5-----10--10^---x---------------0-----------|
D-------------------------3---------5------x--------x-----3-----3------2--2-----|
G-----0-------------x-----3------x--5------0-----------3--3--3--3------2--2---x-|
A------------------------------------------0-----------1--1--1--1------0--0-----|
D--0----------------------------------------------------------------------------|
           1/2                                         1/2

D----------15^--------------3--------7--7------0-------12^----------------------|
A--0--12---12-----0---------3--------5--5---x-----10---10^----x\----------------|
D------x-----------------------------5--5----------0-----------------3-----3----|
G------0-------------x---x--------x--5--5----------0--------------3--3--3--3--3-|
A-----------------------------------------------------------------1--1--1--1--1-|
D-------------------------------------------------------------------------------|
              Verse:       1/2                                        1/2

D--0-----------------------15^---------------3--------7--7------------12^-------|
A--0------------------12---12^----x\---------3-----5--5--5------------10^-------|
D--------2-------------x------------------------------5--5-------------------x\-|
G-----2--2-------x--0--0--------------x---x-----------5--5-------0--------------|
A-----0--0--------------------------------------------------x----0--------------|
D----------------------------------------------------------------0--------------|
                                    1/2                                 1/2

D----------------0-----0--------15--15^-----------3------7-7-----0------12^-----|
A----------------0-----0--------12--12^-----------3--------5--------10--10^-----|
D-----3-----3-------2--2-----------------x\-----------x----5---------0----------|
G--3--3--3--3-------2--2---x--x--0----------x--x-----------5---------0----------|
A--1-----1-------------0--------------------------------------------------------|
D-------------------------------------------------------------------------------|
                                   1/2

D--------------------0-0-0---------15^----------|
A--------------------0-0-0-----12--12-----------|
D---x\----3-----3---------------x---------------|
G------3--3--3--3-----------x---0---------------|
A------1--1--1--1-------------------------------|
D-----------------------------------------------|


Enjoy
Comments