Russell Josh - My Song Chords & Tabs

 

My Song Chords & Tabs

Russell Josh Chords & Tabs

Version: 1 Type: Tab 0 ratings
1 star 2 stars 3 stars 4 stars 5 stars
comments

My Song Tab

Hey all, I just made this up, it sounds kinda nice. If it sounds like any songs uve ever heard, 
I didn't copy. 


 ~--3--------3--------3-----3----------3--------3-----3--------3-------3-----3--------3--------3-----
T~--1--1--------1--------1-------1--------1--------1--1--1-------1--------1-----1--------1--------1--
A~--------0--------0----------------2--------2--------------0-------0--------------0--------0--------
B~--2-----------------------2H3-----------------------2----------------------------------------------
 ~---------------------------------------------------------------------------3-----------------------
 ~---------------------------------------------------------------------------------------------------

 ~--3--------3--------3-----3-----3--------3--------0-----0--------0--------0--------0-----------0-----
T~-----1--------1--------1-----------1--------1--------------1--------1--------0--------0-----------0--
A~--------0--------0--------------------0--------0--------------0--------0--------0--------0-----------
B~-----------------------------2-----------------------0-----------------------------------------------
 ~--------------------------3-----------------------2-----------------------0--------------------------
 ~--3--------------------------------------------------------------------------------------------------
[ Tab from: http://www.guitartabs.cc/tabs/r/russell_josh/my_song_tab.html ]
 ~--0--------0--------0-----1--------1--------3-----3--------3--------------0--------3----------1-----0--
T~-----0--------0--------0-----3--------3--------3-----3--------3--------------1--------0H1--------1-----
A~--------0--------0--------------2--------2--------------0--------0--------------0----------0-----------
B~-------------------------------------------------------------------------------------------------------
 ~--0-----------------------0-----------------------------------------0--2--3-------------------------3--
 ~--------------------------------------------------3----------------------------------------------------

 ~--8--------8--7--------7--5--------5--4--------4--5--------8--8--------8--10--------10--10--------10--
T~-----5-----------5-----------5-----------5-----------6-----------5------------7-------------7---------
A~--------5-----------5-----------5-----------4-----------5-----------5------------7-------------7------
B~--5-----------6-----------7-----------6-----------7-----------5----------- 7------------ 7------------
 ~------------------------------------------------------------------------------------------------------
 ~------------------------------------------------------------------------------------------------------

 ~--8--------8--7--------7--5--------5--4--------4--5--------8--8--------8--3--------3--------0--------3----------1-----1--------3----------1-----0--
T~-----5-----------5-----------5-----------5-----------6-----------5-----------3-----------------1--------0H1--------1--1--1--------0H1--------1-----
A~--------5-----------5-----------5-----------4-----------5-----------5-----------3-----------------0----------0--------------2----------2-----------
B~--5-----------6-----------7-----------6-----------7-----------5-------------------------------------------------------3----------------------------
 ~--------------------------------------------------------------------------3-----------0--2--3---------------------------------------------------3--
 ~---------------------------------------------------------------------------------------------------------------------------------------------------

That's it. If u have any comments, write me at kiwimaker@hotmail.com
Comments