Russ Ballard - Rock And Roll Lover Chords & Tabs

 

Rock And Roll Lover Chords & Tabs

Russ Ballard Chords & Tabs

Version: 1 Type: Tab 0 ratings
1 star 2 stars 3 stars 4 stars 5 stars
comments

Rock And Roll Lover Tab

   
-------------------------------------------------------------------------------
                        Rock & Roll Lover - Russ Ballard
-------------------------------------------------------------------------------
Tabbed by:DennisRockon

Tuning: E Standard

Really great song and i didn't see any tabs for it.I didn't tab out all the
guitar fills. leave a comment or a like if you found this tab helpfull.

Intro Solo
e|--15-15-15-15-15-14-15-14-12-10-12~---15-15-15-15-15-14-15-14-17b19-15~----|
B|---------------------------------------------------------------------------|
G|---------------------------------------------------------------------------|
D|---------------------------------------------------------------------------|
A|---------------------------------------------------------------------------|
E|---------------------------------------------------------------------------|
[ Tab from: http://www.guitartabs.cc/tabs/r/russ_ballard/rock_and_roll_lover_tab.html ]
e|--15-15-15-15-15-14-15-14-12-10-12~-----15-15-15-15-15-14-15-14-12~--------|
B|---------------------------------------------------------------------------|
G|---------------------------------------------------------------------------|
D|---------------------------------------------------------------------------|
A|---------------------------------------------------------------------------|
E|---------------------------------------------------------------------------|
Intro Chords
e|---------------------------------------------------------------------------|
B|---------------------------------------------------------------------------|
G|-9-5-7--9-7-9--------------------------------------------------------------|
D|-9-5-7--9-7-9-X4-----------------------------------------------------------|
A|-7-3-5--7-5-7--------------------------------------------------------------|
E|---------------------------------------------------------------------------|
  Verse
e|---------------------------------------------------------------------------|
B|---------------------------------------------------------------------------|
G|-9-9/7-7/5-5/7--9-9/7-7/5-5\7---2-2-2-2-2-2-2-2-5-5-5-5-5-5-5-5------------|
D|-9-9/7-7/5-5/7--9-9/7-7/5-5\7---2-2-2-2-2-2-2-2-5-5-5-5-5-5-5-5--X2--------|
A|-7-7/5-5/3-3/5--7-7/5-5/3-3\5---0-0-0-0-0-0-0-0-3-3-3-3-3-3-3-3------------|
E|---------------------------------------------------------------------------|
  At the end of the Vers
e|---------------------------------------------------------------------------|
B|---------------------------------------------------------------------------|
G|-9-9/7-7/5-5\7-------------------------------------------------------------|
D|-9-9/7-7/5-5\7--4-4-4-4-4-4-4-9-9-9-9-9-9-9--------------------------------|
A|-7-7/5-5/3-3\5--4-4-4-4-4-4-4-9-9-9-9-9-9-9--------------------------------|
E|----------------2-2-2-2-2-2-2-7-7-7-7-7-7-7--------------------------------|
 Chorus
e|---------------------------------------------------------------------------|
B|---------------------------------------------------------------------------|
G|-9-5-7--9-7-9-----2-2-2-2-2-2-2-2-5-5-5-5-5-5-5-5--------------------------|
D|-9-5-7--9-7-9-X4--2-2-2-2-2-2-2-2-5-5-5-5-5-5-5-5--------------------------|
A|-7-3-5--7-5-7-----0-0-0-0-0-0-0-0-3-3-3-3-3-3-3-3--------------------------|
E|---------------------------------------------------------------------------|
 
 Intro (With vocals and tremolo picking, chords the same as the beginning)

e|--15TP--14TP-15TP-14TP-12TP-10TP-12TP------15TP-14TP-15TP-14TP-12TP--------|
B|---------------------------------------------------------------------------|
G|---------------------------------------------------------------------------|
D|----------------------------------------------------------------------X2---|
A|---------------------------------------------------------------------------|
E|---------------------------------------------------------------------------|

Bridge
   |pm..............................................................
e|---------------------------------------------------------------------------|
B|---------------------------------------------------------------------------|
G|---------------------------------------------------------------------------|
D|---------------------------------------------------------------------------|
A|-7-7-7-7-5-5-5-5-3-3-3-3-2-2-0-0-0-0-0-0-0-0-2-2-3-3-3-3-5-5-5-5-5---------|
E|---------------------------------------------------------------------------|
  |pm.....................|
e|---------------------------------------------------------------------------|
B|---------------------------------------------------------------------------|
G|---------------------------------------------------------------------------|
D|---------------------------4-4-4-4-4-4-4-4-9-9-9-9-9-9-9-9-----------------|
A|-7-7-7-7-5-5-5-5-3-3-3-3---4-4-4-4-4-4-4-4-9-9-9-9-9-9-9-9-----------------|
E|---------------------------2-2-2-2-2-2-2-2-7-7-7-7-7-7-7-7-----------------|

Chorus 
Intro
Chorus
Intro

Fade Out


************************************

| /   slide up
| \   slide down
| h   hammer-on
| p   pull-off
| ~   vibrato
| +   harmonic
| x   Mute note
| b   Bend
| pb  Pre-bend
| br  Bend release
| pbr Pre-bend release
| brb Bend release bend
| TP  Tremolo Picking

************************************
Comments