Rush - Wheres My Thing Chords & Tabs

 

Wheres My Thing Chords & Tabs

Rush Chords & Tabs

Version: 1 Type: Bass Tab 0 ratings
1 star 2 stars 3 stars 4 stars 5 stars
comments

Wheres My Thing Bass Tab

   
Where's My Thing?       By: Rush
================================

    w   +w   +w   +h s s s e s e   +w   +h s s s e s e   w   +h s s s e s e  
+-----+----+----+----------------+----+----------------+---+----------------+
|4:-R-|----|----|----------------|----|----------------|---|----------------|
|4:---|----|----|----5-5-3-5-5-3-|----|----5-5-3-5-5-3-|---|----5-5-3-5-5-3-|
+-----+----+----+----------------+----+----------------+-0-+----------------+


  +w   +h s s s e s e   w   +h e e e e   s s s e s e e e e e  
+----+----------------+---+------------+---------------------+
|----|----------------|---|------------|---------------------|
|----|----5-5-3-5-5-3-|---|------------|-5-5-3-5-5-3---------|
+----+----------------+-0-+----0-1-2-3-+-------------5-3-5-3-+


  s s s e s e e e e e   s s s e s e e e e e   s s s e s e e e e e  
+---------------------+---------------------+---------------------+
|---------------------|---------------------|---------------------|
|-5-5-3-5-5-3---------|-5-5-3-5-5-3---------|-5-5-3-5-5-3---------|
+-------------0-1-2-3-+-------------5-3-5-3-+-------------0-1-2-3-+


  s s s e s e e e e e   s s s e s e e e e e   s s s e s e e e e e  
+---------------------+---------------------+---------------------+
|---------------------|---------------------|---------------------|
|-5-5-3-5-5-3---------|-5-5-3-5-5-3---------|-5-5-3-5-5-3---------|
+-------------5-3-5-3-+-------------0-1-2-3-+-------------5-3-5-3-+


  s s s e s e e e e e   Q Q e e   e s e e q q   Q q e e e   e e e e q q  
+---------------------+---------+-------------+-----------+-------------+
|---------------------|---------|-------------|-----------|-------------|
|-5-5-3-5-5-3---------|---------|-------------|-----------|---------5-5-|
+-------------0-1-2-3-+-0-0-0-0-+-0-0-0-0-5-5-+-3-3-3-3-2-+-3-3-2-3-----+


  Q q e e e   e e e e e e e e   q q e q e   q e t t+e s s e e   Q Q e e  
+-----------+-----------------+---2-------+-2---2-4---2-4-2---+---------+
|-----------|-----------------|-----R-5-R-|---R-------------5-|---------|
|-3-3-3-3---|-3-3-3-3-2-2-3-2-|-----------|-------------------|---------|
+---------3-+-----------------+-5---------+-------------------+-0-0-0-0-+


  q q q q   Q q e e e   e e e e q e e   Q q e e e   e e s s e e e e e  
+---------+-----------+---------------+-----------+---5---------------+
|---------|-----------|---------------|-----------|-------------------|
|---------|-----------|---------5-7-5-|-3-3-3-3---|-3---3-5-3-2-2-3-2-|
+-0-0-5-5-+-3-3-3-3-2-+-3-3-2-3-------+---------3-+-------------------+


  e e e e e e e e   e e e q e q   s s s e s e e e e e   s s s e s e e e e e  
+-----------------+-------------+---------------------+---------------------+
|-----------------|-5---------5-|---------------------|---------------------|
|-----7-----------|-------7-----|-5-5-3-5-5-3---------|-5-5-3-5-5-3---------|
+-5-5---5-5-5-5-5-+---5-5---5---+-------------5-3-5-3-+-------------0-1-2-3-+


  s s s e s e e e e e   s s s e s e s s s s s s s s   s s s e s e e e e e  
+---------------------+---------------0---0---0---0-+---------------------+
|---------------------|-------------5---4---2---4---|---------------------|
|-5-5-3-5-5-3---------|-5-5-3-5-5-3-----------------|-5-5-3-5-5-3---------|
+-------------5-3-5-3-+-----------------------------+-------------5-3-5-3-+


  s s s e s e e e e e   s s s e s e e e e e   s s s e s e s s s s s s s s  
+---------------------+---------------------+---------------0---0---0---0-+
|---------------------|---------------------|-------------5---4---2---4---|
|-5-5-3-5-5-3---------|-5-5-3-5-5-3---------|-5-5-3-5-5-3-----------------|
+-------------0-1-2-3-+-------------5-3-5-3-+-----------------------------+


  Q h e   q e e q q   Q q e e e   e e e e q q   Q q e e e   e e e e e e e e  
+-------+-----------+-----------+-------------+-----------+-----------------+
|-2-----|-----------|-----------|-------------|-----------|-----5-----------|
|-------|-----------|-----------|---------5-5-|-3-3-3-3---|-3-3---3-2-2-3-2-|
+---0-0-+-0-0-0-5-5-+-3-3-3-3-2-+-3-3-2-3-----+---------3-+-----------------+


  e e e e e e e e   s s s s e e e e e e   Q h e   q e e q e e   Q q e e e  
+-----------------+-------------------9-+-------+-------------+-----------+
|-----------5-----|-4-5-4-------4-5-----|-------|-------------|-----------|
|-----7-----------|-------7-5-7-----7---|-------|-------------|-----------|
+-5-5---5-5---5-5-+---------------------+-0-0-0-+-0-0-0-5-7-5-+-3-3-3-3-2-+


  e e e e e e e e   Q q e e e   e e e s s e e e e   Q e e e e e  
+-----------------+-----------+-------------------+-------------+
|-----------------|-----------|-----5-------------|-------------|
|---------5-5-7-5-|-3-3-3-3---|-3-3---3-3-2-2-3-2-|-------------|
+-3-3-2-3---------+---------3-+-------------------+-5-5-5-5-5-5-+


  s s s s s s s s s s s s s s s s   E e s e e e s s e   E e s e e e e e  
+-4-------------------------------+-------------------+-----------------+
|---5-7-5-4-----------------------|-------------0-2---|-----------------|
|-----------7-5-4-5-4-------------|-------------------|-------------2-5-|
+---------------------7-5-3-0-3-0-+-3-5-5-0-3-5-----0-+-3-5-5-0-3-5-----+


  e e s e e e s s e     e e s e e s s e e e e     e e s e e e e e  
+-------------------+-------------------------+-------------------+
|-------------2-2---|5:-----------------------|4:-------------2---|
|-------------------|4:-----------------2-5---|4:-----------------|
+-3-5-5-0-3-5-----0-+---3-5-5-0-3-5-5-5-----0-+---3-5-5-0-3-5---0-+


  e e s e e e e e   e e s e e e e e   e e s e e e s s e   e e s e e e e e  
+-----------------+-----------------+-------------------+-----------------+
|-----------------|-------------2---|-------------------|-------------2---|
|-------------2-5-|-----------------|-------------------|-----------------|
+-3-5-5-0-3-5-----+-3-5-5-0-3-5---0-+-3-5-5-0-5-4-3-4-0-+-3-5-5-0-3-5---0-+

[ Tab from: http://www.guitartabs.cc/tabs/r/rush/wheres_my_thing_btab.html ]
  e e s e e e s s e   e e s e e e e e   e e s e e e s s e   e e s e e e e e  
+-------------------+-----------------+-------------------+-----------------+
|-------------------|-------------2---|-------------------|-------------2---|
|-------------------|-----------------|-------------------|-----------------|
+-3-5-5-0-5-4-3-4-0-+-3-5-5-0-3-5---0-+-3-5-5-0-5-4-3-4-0-+-3-5-5-0-3-5---0-+


  e e s e e e s s e   e e s e e e e e   e e s e e e s s e   e e s e e e e e  
+-------------------+-------------2---+-------------------+-------------2---+
|-------------------|-----------------|-------------------|-----------------|
|-------------------|-3-5-5---3-5-----|-3-5-5---5-4-3-4---|-3-5-5---3-5-----|
+-3-5-5-0-5-4-3-4-0-+-------5-------5-+-------5---------5-+-------5-------5-+


  e e s e e e s s e   e e s e e e e e   e e s e e e s s e   e e s e e e e e  
+-------------------+-----------------+-------------------+-----------------+
|-------------------|-------------2---|-------------------|-------------2---|
|-3-5-5---5-4-3-4---|-----------------|-------------------|-----------------|
+-------5---------5-+-3-5-5-0-3-5---0-+-3-5-5-0-5-4-3-4-0-+-3-5-5-0-3-5---0-+


  e e s e e e s s e   s s s e s e e s s e e   s s s e s e e e e e  
+-------------------+-----------------------+---------------------+
|-------------------|-----------------------|---------------------|
|-------------------|-5-5-3-5-5-3-----------|-5-5-3-5-5-3---------|
+-3-5-5-0-5-4-3-4-0-+-------------5-3-3-5-3-+-------------0-1-2-3-+


  s s s e s e e e e e   s s s e s e h   s s s e s e e s s e e  
+---------------------+---------------+-----------------------+
|---------------------|-------------R-|-----------------------|
|-5-5-3-5-5-3---------|-5-5-3-5-5-3---|-5-5-3-5-5-3-----------|
+-------------5-3-5-3-+---------------+-------------5-3-3-5-3-+


  s s s e s e e e e e   s s s e s e e e e e     W     Q q e e e  
+---------------------+---------------------+-----+-------------+
|---------------------|---------------------|6:-R-|4:-----------|
|-5-5-3-5-5-3---------|-5-5-3-5-5-3---------|4:---|4:-----------|
+-------------0-1-2-3-+-------------5-3-5-3-+-----+---2-2-2-2-0-+


  e e e e q e e   Q q e e e   e e e e e e e e   Q q e e e   e e e e e e e e  
+---------------+-----------+-----------------+-----------+-----------------+
|---------------|-----7-----|-----------------|-----------|-----7-----------|
|---------2-4-2-|-----------|---------7-7-9-7-|-5-5-5-5---|-5-5---5-4-4-5-4-|
+-2-2-0-2-------+-5-5---5-4-+-5-5-4-5---------+---------5-+-----------------+


  e+h Q   q e Q e e   Q q e e e   e e e e q e e   Q q e e e   e e e e e e e e  
+-------+---------4-+-----------+---------------+-----------+-----------------+
|-------|-7-R-9-7---|-----------|---------------|-----------|-----------------|
|-2---7-|-----------|-----------|---------2-4-2-|-----------|---------7-7-9-7-|
+-------+-----------+-2-2-2-2-0-+-2-2-0-2-------+-5-5-5-5-4-+-5-5-4-5---------+


  e e e q e e e   e e s s e e e e e   e e e e e e e e   e e e e e e e e  
+-----------7---+-------------------+---4-------4-----+---4---6---4-----+
|---------------|-------------------|-----------------|---------------7-|
|-5-5-5-5-5---5-|-5-7-9-7-5-5-4-5-4-|-2---2-2-2---2-2-|-2---4---2-------|
+---------------+-------------------+-----------------+-------------5---+


  q e q e e e   e e e e e e e e   Q q e e e   e e e e e s s s s e   Q q e e e  
+-------------+-----------------+-----------+---------------------+-------5---+
|---2-----2---|-----2-----------|-----------|---------------------|-----5---5-|
|-------------|-------------4---|-----------|---------5-5-5-7-7-5-|-3-3-------|
+-0---0-0---0-+-0-0---0-5-5---5-+-3-3-3-3-2-+-3-3-2-3-------------+-----------+


  s s e e e e e e e   e e e e e e e e   s s s s s s  s s s  s  s s  q  
+-------------------+-----------------+-------------------------------+
|-------------------|-----------------|-7-----9-9---10-----12------14-|
|-3-3---5---2-2-3-2-|-----------------|---0-0-----0----0-0----12-0----|
+-----3---3---------+-5-5-5-5-5-5-5-5-+-------------------------------+


  e e s e e e e e   e e s e e e s s e   e e s e e e e e   e e s e e e e e  
+-----------------+-------------------+-----------------+-----------------+
|-------------2---|-------------------|-------------2---|-----------------|
|-----------------|-----------------5-|-----------------|-------------2-5-|
+-3-5-5-0-3-5---0-+-3-5-5-0-3-5-5-5---+-3-5-5-0-3-5---0-+-3-5-5-0-3-5-----+


  e e s e e e e e   e e s e e e e e   e e s e e e e e   e e s e e e e e  
+-----------------+-----------------+-----------------+-----------------+
|-------------2---|-----------------|-------------2---|-----------------|
|-----------------|-------------2-5-|-----------------|-------------2-5-|
+-3-5-5-0-3-5---0-+-3-5-5-0-3-5-----+-3-5-5-0-3-5---0-+-3-5-5-0-3-5-----+


==========================================================================

                Created using the Bass Tab Creator
     __         by Mario D'Alessio (motcid!marble!dalessio)
   +|oo|+       
   +|oo|+       Notes:  w = Whole  h = Half  q = Quarter
     ||                 e = 8th    s = 16th  t = 32nd  x = 64th
     ||
     ||                 Capital durations are dotted notes
     ||                   (equal to 1.5 times the duration value)
     ||
     ||             #
     ||         +----+                   +----+
  _  ||  _      |*--*+  = MEASURE        |4:--|  = TIME
  \\_||_//      |*--*+    REPEATS        |4:--|    SIGNATURES
   | [] |       +----+   (#=Num Repeats) +----+
   | || |
  /  []  \      + = TIE         ^  = TRIPLET           > = BEND
  \______/      H = HAMMER ON   \  = SLIDE TO FRET     R = Rest
                P = PULL OFF    \X = SLIDE TO NOWHERE  ~ = Trill
Comments