Rush - What Youre Doing Chords & Tabs

 

What Youre Doing Chords & Tabs

Rush Chords & Tabs

Version: 1 Type: Bass Tab 0 ratings
1 star 2 stars 3 stars 4 stars 5 stars
comments

What Youre Doing Bass Tab

   
Rush: What You're Doing
>From the album Rush (Mercury Records)
Copyright 1974 Core Music Publishing
Music by Lee and Lifeson
Lyrics by Lee and Lifeson

Comments/corrections to Sean Jones 

Transcribed by Jason Lee and Sean Jones

Last Updated 8-30-98


      q    q E s s s e q   E s E s e e e e e     q E s s s e q   E s
||-------|---------------|-------------------||----------------|--------
||-4:----|---------------|-------------5-----||*---------------|--------
||-4:----|-----------5-7-|---------------7---||*-----------5-7-|--------
||----12\|-0-3-4-5-7-----|-0-0-3-4-5-7-----7\||--0-3-4-5-7-----|-0-0----


E s e e e e e   q q q q   q q q s E   q E s s s e q   E s E s e e e e
--------------|---------|-----------|---------------|-------------------
--------5-----|---7---7-|---7-------|---------------|-------------5-----
----------7---|---------|-----------|-----------5-7-|---------------7---
3-4-5-7-----3/|-5---5---|-5---5-5-3-|-0-3-4-5-7-----|-0-0-3-4-5-7-------


e   q q q q   q q q s E   q E s s s e q   E s E s e e e e e   q q q s
--|---------|-----------|---------------|-------------------|-----------
--|---7---7-|---7-------|---------------|-------------5-----|---9---9---
--|---------|-----------|-----------5-7-|---------------7---|-----------
3/|-5---5---|-5---5-5-3-|-0-3-4-5-7-----|-0-0-3-4-5-7-----5/|-7---7-----


s s s   q h s E     q E s s s e q   E s E s e e e q     s s s s s s q
------|---r-r----||---------------|-----------------||--9-8-7-----------
--9-8-|-7-e-e---*||---------------|-------------5---||*-------9-8-7-5---
7-----|---s-s---*||-----------5-7-|---------------7\||*-----------------
------|---t-t-3--||-0-3-4-5-7-----|-0-0-3-4-5-7-----||------------------


s s s s s s q   s s s s s s s s s s s s s s e   q E s s s e q   E s E
9-8-7---------|-9-8-7---7---------------------|---------------|---------
------9-8-7-5-|-------9---9-7-5-7-5---5-------|---------------|---------
--------------|---------------------7---7-5---|-----------5-7-|---------
--------------|-----------------------------7\|-0-3-4-5-7-----|-0-0-3---


s e e e q     s s s s s s s s s s s s s s e     q E s s s e q   E s E
-----------||-------------------------------||----------------|---------
------5---*||-5-4-5-6-7-6-7-----------------||*---------------|---------
--------7\*||---------------7\3-2-3-4-5-4-5/||*-----------5-7-|---------
4-5-7------||-------------------------------||--0-3-4-5-7-----|-0-0-3---


s e e e e e   q q q q   q q q s E   q E s s s e q   E s E s e e e e e
------------|---------|-----------|---------------|---------------------
------5-----|---7---7-|---7-------|---------------|-------------5-------
--------7---|---------|-----------|-----------5-7-|---------------7-----
4-5-7-----3/|-5---5---|-5---5-5-3-|-0-3-4-5-7-----|-0-0-3-4-5-7-----3---


   q q q q   q q q s E   q E s s s e q   E s E s e e e e e   q q q s
-|---------|-----------|---------------|-------------------|------------
-|---7---7-|---7-------|---------------|-------------5-----|---9---9----
-|---------|-----------|-----------5-7-|---------------7---|------------
/|-5---5---|-5---5-5-3-|-0-3-4-5-7-----|-0-0-3-4-5-7-----5/|-7---7------


s s s   q h s E     q E s s s E q   E s E s E E E E E   E s E s E s E
------|---r-r---||----------------|-------------------|-----------------
--9-8-|-7-e-e---||*---------------|-------------5-----|-----------------
7-----|---s-s---||*-----------5-7-|---------------7---|-----4-4-5-5-6---
------|---t-t-3-||--0-3-4-5-7-----|-0-0-3-4-5-7-----3/|-5-5-------------


E   E s E s E s E E     q E s s s E q   E s E s E E E E E   q q q s s
--|------------------||---------------|-------------------|-------------
--|-----------------*||---------------|-------------5-----|---9---9-----
7-|-----4-4-5-5-6-7\*||-----------5-7-|---------------7---|---------7---
--|-5-5--------------||-0-3-4-5-7-----|-0-0-3-4-5-7-----5/|-7---7-------


s s   q h s E     q E s s s e q   E s E s e e e e e   s s s s s s s s
----|---r-r---||----------------|-------------------|-------------------
9-8-|-7-e-e---||*---------------|-------------5-----|-------------------
----|---s-s---||*-----------5-7-|---------------7---|-------4-4-4-5-5---
----|---t-t-3-||--0-3-4-5-7-----|-0-0-3-4-5-7-----3/|-5-5-5-------------


s s s s s s s s   s s s s s s s s s s s s s s s s     q E s s s e q
----------------|----------------------------------||---------------|---
----------4-5-7-|---------------------------4-5-7-*||---------------|---
5-6-6-6-7-------|-------4-4-4-5-5-5-6-6-6-7-------*||-----------5-7-|---
----------------|-5-5-5----------------------------||-0-3-4-5-7-----|---

[ Tab from: http://www.guitartabs.cc/tabs/r/rush/what_youre_doing_btab.html ]
E s E s e e e e e   s s s s s s s s s s s s s s s s   q h s E   q E s
------------------|---------------------------------|---r-r---|---------
------------5-----|---------------------------7-9-7-|---e-e---|---------
--------------7---|-------6-6-6-7-7-7-8-8-8-9-------|-0-s-s---|---------
0-0-3-4-5-7-----5/|-7-7-7---------------------------|---t-t-3-|-0-3-4---


s s e q   E s E s e e e q     s s s s s s q s s s s s s q   s s s s s
--------|-----------------||--9-8-7---------9-8-7---------|-9-8-7---7---
--------|-------------5---||*-------9-8-7-5-------9-8-7-5-|-------9-----
----5-7-|---------------7-||*-----------------------------|-------------
5-7-----|-0-0-3-4-5-7-----||------------------------------|-------------


s s s s s s s s s e   q E s s s e q   E s E s e e e q     s s s s s s
--------------------|---------------|------------------||---------------
9-7-5-7-5---5-------|---------------|-------------5---*||-5-4-5-6-7-6---
----------7---7-5---|-----------5-7-|---------------7\*||---------------
------------------7\|-0-3-4-5-7-----|-0-0-3-4-5-7------||---------------

s s s s s s s s e   q E s s s e q   E s E s e e e e e   q q q q   q
------------------|---------------|-------------------|---------|-------
7-----------------|---------------|-------------5-----|---7---7-|-------
--7\3-2-3-4-5-4-5/|-----------5-7-|---------------7---|---------|-------
------------------|-0-3-4-5-7-----|-0-0-3-4-5-7-----3/|-5---5---|-5-----


q q s E   q E s s s e q   E s E s e e e e e   q q q q   q q q s E   q
--------|---------------|-------------------|---------|-----------|-----
7-------|---------------|-------------5-----|---7---7-|---7-------|-----
--------|-----------5-7-|---------------7---|---------|-----------|-----
--5-5-3-|-0-3-4-5-7-----|-0-0-3-4-5-7-----3/|-5---5---|-5---5-5-3-|-0---


E s s s e q   E s E s e e e e e   q q q s s s s   q h s E   q E s s s
------------|-------------------|---------------|---r-r---|-------------
------------|-------------5-----|---9---9---9-8-|-7-e-e---|-------------
--------5-7-|---------------7---|---------7-----|---s-s---|-------------
3-4-5-7-----|-0-0-3-4-5-7-----5/|-7---7---------|---t-t-3-|-0-3-4-5-7---


E q   E s E s E E E E E   q E s s s E q   E s E s E E E E E   w+  h q
----|-------------------|---------------|-------------------|---|-------
----|-------------5-----|---------------|-------------5-----|-5-|---5---
5-7-|---------------7---|-----------5-7-|---------------7-7-|---|-------
----|-0-0-3-4-5-7-----7\|-0-3-4-5-7-----|-0-0-3-4-5-7-------|---|-------


q   w+  h q q   w+  h q q
r-|---|-----r-|---|-----r-||--------------------------------------------
e-|-7-|---7-e-|---|-----e-||--------------------------------------------
s-|---|-----s-|-7-|---7-s-||--------------------------------------------
t-|---|-----t-|---|-----t-||--------------------------------------------




========================================================================
==                       TABLATURE EXPLANATION                        ==
========================================================================

----------                ----------                ----t---
----5h8--- Hammeron       ----(8)--- Ghost          ----6--- Tap
----------                ---------- Note           --------
----5p8--- Pulloff        ----------                --------

----------                ----------                -----p--
----5/8--- Slide Up       -----x---- Dead           -----7-- Pop
----------                ---------- Note           --s-----
----5\8--- Slide Down     ----------                --5----- Slap

----------                ||------|| Repeat         --------
----5~~~-- Vibrato        ||*----*||                ---5^--- Bend
----------                ||*----*||                --------
----------                ||------||                --------

----------                ----------                --------
-4:------- Time           ----------                --------
-4:------- Signature      ----------                --------
----------                ----------                --------

Rhythm:
  w = whole note            W = dotted whole
  h = half note             H = dotted half
  q = quarter note          Q = dotted quarter
  e = eighth note           E = dotted eighth
  s = sixteenth note        S = dotted sixteenth
  t = 32nd note             T = dotted 32nd
  x = 64th note             X = dotted 64th
  ^ = triplet

========================================================================
==            Created with a demo version of BUCKET O' TAB            ==
==              tablature creation software for Windows               ==
==                  For more info email gse@his.com                   ==
========================================================================


Comments