Rush - Summertime Blues Chords & Tabs

 

Summertime Blues Chords & Tabs

Rush Chords & Tabs

Version: 1 Type: Bass Tab

Summertime Blues Bass Tab

   
Summertime Blues (Rush)
Standard Tuning

(Intro)
G:-------|------------------|-------------------|
D:-------|-----------------5|-5-----3--3--------|
A:-------|-------5--5-7-7---|---5-5----------3--|
E:--12\--|--/7-7------------|------------5-5----|

G:------------------|----------------5--|
D:-----------------5|-5-----3--3-----5--|
A:-------5--5-7-7---|---5-5----------3--|
E:--/7-7------------|------------5-5----|

(Drum Groove)

G:------------------------------|
D:------------------------------|
A:------------------------------|
E:-555-xxxx-55-xx-555-xxxx-55-xx|

G:------------------------------|-----------------------------|
D:------------------------------|-----------------------------|
A:----4-5---0-5----7------------|-0-7-6-5---4-5---7-----------|
E:5-5----------------0-4-5--4-5-|-------------------5-4-5--4-5|

G:--------------------------------------------|--------|
D:--------------------------------------------|--------|
A:--------------------------------------------|--------|
E:555-xxxx-55-xx-555-xxxx-55-xx-555-xxxx-55-xx|-0-3-2-0|

G|--------------|---------------|-----------------------------|
D:--------------|---------------|-----------------------------|
A:--------------|---------------|-----4-5---0-5---7-----------|
E:5~-----~-----~|-~-----~------~|-5-5---------------0-4-5--4-5|

G:--------------|---------------|-----------------------------|
D:--------------|---------------|-----------------------------|
A:--------------|---------------|-----4-5---0-5---7-----------|
E:555-xxxx-55-xx|-555-xxxx-55-xx|-5-5---------------0-4-5--4-5|

G:------------------------------|-----------------------------|-----|
D:------------------------------|----------(Guitar)-----------|-----|
A:5-5---5--5--5-5-5--5-5-4-5-3-0|-----------------------------|-12\-|
E:------------------------------|-----------------------------|-----|

                                 "Cause there ain't no cure..."
G:------------------------------|-----------------------------|
D:------------------------------|-----------------------------|
A:5-5--5-5-5--5-5-5--5-5-4-5-3-0|-----------------------------|
E:------------------------------|-----------------------------|

G:------------------------------|-----------------------------|
D:------------------------------|-----------------------------|
A:-------5---0-5---7-7----------|0-7-6-5---5-5---7-7----------|
E:5--------------------4-5--4-5-|--------------------4-5--4-5-|

G:--------------------------------------------|--------|
D:--------------------------------------------|--------|
A:--------------------------------------------|--------|
E:555-xxxx-55-xx-555-xxxx-55-xx-555-xxxx-55-xx|-0-3-2-0|

G|--------------|---------------|-----------------------------|
D:--------------|---------------|-----------------------------|
A:--------------|---------------|-----4-5---0-5---7-----------|
E:5~-----~-----~|-~-----~------~|-5-5---------------0-4-5--4-5|

G:--------------|---------------|-----------------------------|
D:--------------|---------------|-----------------------------|
A:--------------|---------------|-0-7-6-5---4-5---7-----------|
E:555-xxxx-55-xx|-555-xxxx-55-xx|-------------------0-4-5--4-5|

G:------------------------------|
D:------------------------------|
A:5-5---5--5--5-5-5--5-5-4-5-3-0|
E:------------------------------|
[ Tab from: http://www.guitartabs.cc/tabs/r/rush/summertime_blues_btab.html ]
Bass Fill
G:------------------------------------------------|-----|
D:----------------5--5-5------------------5--5-5--|-----|
A:----------------3--3-3------------------3--3-3--|-12\-|
E:\--/5--3-3-5-5-----------\--/5--3-3-5-5---------|-----|

                                 "Cause there ain't no cure..."
G:------------------------------|-----------------------------|--------|
D:------------------------------|-----------------------------|--Drum--| 
A:5-5--5-5-5--5-5-5--5-5-4-5-3-0|-----------------------------|--Fill--|
E:------------------------------|-----------------------------|--------|

G:------------------------------|-----------------------------|
D:------------------------------|-----------------------------|
A:-----4-5---0-5---7-7----------|0-7-6-5---4-5---7-7----------|
E:-5-5-----------------4-5--4-5-|--------------------4-5--4-5-|


(Guitar Solo)
G:------------------------------|-----------------------------|
D:------------------------------|-----------------------------|
A:----5-5---5-5---7-7-----------|-0-7-6-5---5-5---7-7---------|
E:5-5-----------------4-5-------|---------------------4-5-----|

G:------------------------------|-----------------------------|
D:--------------------6-7-------|7----------------------------|
A:0-7-6-5---5-5---7-7-----------|--7-6-5---5-5---7------------|
E:------------------------------|------------------0-4-5------|

G:--------------------3-4-------|4----------------------------|
D:----1-2---1-2---4-4-----------|--4-3-2---------4-4----------|
A:2-2---------------------------|--------------------1-2------|
E:------------------------------|-----------------------------|

G:-----------------------------------------------|--------|
D:-----------------------------------------------|--------|
A:/222-xxxx-22-xx-/222-xxxx-22-xx-/222-xxxx-22-xx|--------|
E:-----------------------------------------------|-5-5-4-2|

G:-4----------------------------|4----------------------------|
D:-4----------------------------|--4-3-2---1-2----------------|
A:-2----------------------------|---------------------1-2-----|
E:------------------------------|-----------------2-2------12\|

G:------------------------------|4----------------------------|
D:------------------------------|--4-3-2---1-2----------------|
A:222-xxxx-22-xx-222-xxxx-22-xx-|---------------------1-2-----|
E:------------------------------|-----------------2-2---------|

G:------------------------------|-----------------------------|-----|
D:2-2---2--0--0-2-2--0-2-0-2-0--|-----------(Drums)-----------|-12\-|
A:-----------------------------2|-----------------------------|-----|
E:------------------------------|-----------------------------|-----|

G:------------------------------|-----------------------------|
D:2-2---2--0--0-2-2--0-2-0-2-0--|-----------------------------|
A:-----------------------------2|-----------------------------|
E:------------------------------|-----------------------------|


G:------------------|-------------------|
D:*----------------5|-5-----3--3-------*| (2)
A:*------5--5-7-7---|---5-5----------3-*|
E:--/7-7------------|------------5-5----|

G:------------------|----------------5-~|-~-----------------|
D:-----------------5|-5-----3--3-----5-~|-~-----------------|
A:-------5--5-7-7---|---5-5----------3-~|-~-----------------|
E:--/7-7------------|------------5-5---~|-~-----------------|

(Outro)
G:-6----------------|-7-----------------|-------------------|----|
D:-6----------------|-7-----------------|-7-----------------|-7\-|
A:-4----------------|-5-----------------|-7-----------------|-7\-|
E:------------------|-------------------|-5-----------------|-5\-|

Thanks, I hope this helps. Please rate it after you learn it. 
Tabbed by:
The_Rainmaker