Rush - Summer Time Blues Chords & Tabs

 

Summer Time Blues Chords & Tabs

Rush Chords & Tabs

Version: 1 Type: Tab 0 ratings
1 star 2 stars 3 stars 4 stars 5 stars
comments

Summer Time Blues Tab

I haven't figured out the solo yet, so if you know it, e-mail me at adocbasser@hotmail.com

e--------------------------------|
b--------------------------------|
g--------------------------------|
d--------------------------------|
a---------7-7-10----5-5-8--------|
e--7-7-10------------------5-5-8-|  play twice


e----------------------------------------------------------------|
b----------------------------------------------------------------|
g----------------------------------------------------------------|
d---------------------------------------------7---9-9--7---9-9---|
a-----------------------------------------7-7-5---7-7--7---7-7-7-|
e--3-5-5-5-3-5-5-5-3-5-5-5-3-5-5-5-5-5----5-5-5----------------5-|
play chords twice


e--------------------------------------------------------------------|
b--------------------------------------------------------------------|
g--------------------------------------------------------------------|
d--------------------------------------------------------------7-7-7-|
a--------------------------------------------------------------5-5-5-|
e--3-5-5-5-3-5-5-5-3-5-5-5-3-5-5-5-3-5-5-5-3-5-5-5-3-5-5-5-3-5-------|

e-----------------------------------|
b-----------------------------------|
g-----------------------------------|
d------------------------7---9-9--7-|
a--7-7-7-7-7-7-7-7--7-7--5---7-7--7-|
e--5-5-5-5-5-5-5-5--5-5-----------5-| play twice

e-------------------------------------|
b-------------------------------------|
g-------------------------------------|
d--7--7-7-7-7-7-7-7-7-7-7-7-7-7-7-7---|
a--5--5-5-5-5-5-5-5-5-5-5-5-5-5-5-5-7-|
e-----------------------------------5-|

e----------------------------------|
b----------------------------------|
g----------------------------------|
d----------------------------------|
a----------------------------------|
e--5-5-5-5-3-3-3-3-5-5-5-5-3-3-3-3-|

e-------------------------------------|
b-------------------------------------|
g-------------------------------------|
d--7--7-7-7-7-7-7-7-7-7-7-7-7-7-7-7---|
a--5--5-5-5-5-5-5-5-5-5-5-5-5-5-5-5-7-|
e-----------------------------------5-|

'Cause there a'int no cure for the summer time blues

e------------------|
b------------------|
g------------------|
d-------7---9-9----|
a--7-7--5---7-7--7-|
e--5-5-----------5-| play twice
[ Tab from: http://www.guitartabs.cc/tabs/r/rush/summer_time_blues_tab.html ]
e-----------------------------------|
b-----------------------------------|
g-----------------------------------|
d------------------------7---9-9--7-|
a--7-7-7-7-7-7-7-7--7-7--5---7-7--7-|
e--5-5-5-5-5-5-5-5--5-5-----------5-| play twice

e-------------------------------------|
b-------------------------------------|
g-------------------------------------|
d--7--7-7-7-7-7-7-7-7-7-7-7-7-7-7-7---|
a--5--5-5-5-5-5-5-5-5-5-5-5-5-5-5-5-7-|
e-----------------------------------5-|  bass fill

e-------------------------------------|
b-------------------------------------|
g-------------------------------------|
d--7--7-7-7-7-7-7-7-7-7-7-7-7-7-7-7---|
a--5--5-5-5-5-5-5-5-5-5-5-5-5-5-5-5-7-|
e-----------------------------------5-|

'Cause there a'int no cure for the summer time blues

Solo: Still woking on the solo, sorry!


e------------------|
b------------------|
g------------------|
d-------9--11-11---|
a--9-9--7---9-9--9-|
e--7-7-----------7-| play twice

e----------|
b----------|
g----------|
d----------|
a----------|
e--5-7-7-7-| play seven times

e--------|
b--------|
g--------|
d--9-9-9-|
a--7-7-7-|
e--------|

e---------------------------------------------------|
b---------------------------------------------------|
g---------------------------------------------------|
d----------------------------------------9--11-11---|
a--9-9-9-9-9-9-9-9-9-9-9-9-9-9-9-9--9-9--7---9-9--9-|
e--7-7-7-7-7-7-7-7-7-7-7-7-7-7-7-7--7-7-----------7-| play twice

e--------------------------------------|
b--------------------------------------|
g--------------------------------------|
d--9--9-9-9-9-9-9-9-9-9-9-9-9-9-9-9----|
a--7--7-7-7-7-7-7-7-7-7-7-7-7-7-7-7--9-|
e------------------------------------7-|  drum fill

e--------------------------------------|
b--------------------------------------|
g--------------------------------------|
d--9--9-9-9-9-9-9-9-9-9-9-9-9-9-9-9----|
a--7--7-7-7-7-7-7-7-7-7-7-7-7-7-7-7--9-|
e------------------------------------7-|


'Cause there a'int no cure for the summer time blues

e--------------------------------|
b--------------------------------|
g--------------------------------|
d--------------------------------|
a---------7-7-10----5-5-8--------|
e--7-7-10------------------5-5-8-|  play three times

Well, that's all I have for now. I hope you like my first tab!!
Comments