Rush - Spirit Of Radio Chords & Tabs

 

Spirit Of Radio Chords & Tabs

Rush Chords & Tabs

Version: 4 Type: Tab 0 ratings
1 star 2 stars 3 stars 4 stars 5 stars
comments

Spirit Of Radio Tab

   
-------------------------------------------------------------------------------
			    Rush - Spirit Of Radio
-------------------------------------------------------------------------------
Tabbed by:S.T Dredd Slayer
Email:ihateemailitsgay@yahoo.com

Tuning:Eadgbe
[ Tab from: http://www.guitartabs.cc/tabs/r/rush/spirit_of_radio_tab_ver_4.html ]
E|--2-0---0-5-0--0-2-0---0-4p2p0---0------------------------------------|
B|------3-------3-------3--------3--------------------------------------|
G|----------------------------------------------------------------------|
D|----------------------------------------------------------------------|
A|----------------------------------------------------------------------|
E|----------------------------------------------------------------------|
     ^Played a few times(not sure exactly how many)^
E|-------------------------------------------------------------------------|
B|-------------------------------------------------------------------------|
G|-------------------------------------------------------------------------|
D|-----2-3-4-5-4-2--4-4-2-2------------------------------------------------|
A|--------------------------5-5-4-2----------------------------------------|
E|-0-0------------------------------5-3-2----------------------------------|
^^This part is VERY hard to hear it could be substituted with an open E

E|------------------------------------------------------------------------|
B|------------------------------------------------------------------------|
G|------------------------------------------------------------------------|
D|-/4-2---------------------*----------2--2--------2-*--------------------|
A|------5-4-5-4-2-----------*2---------0--0--2-3-4---*--------------------|
E|--------------------------*0-2-3-4-----------------*--------------------|
                               ^^^Played Twice^
e|------0------0----0---------------5-7---0---0---0---0----------|
B|------0------0----0---------------5-7---0---0---0---2----------|
G|------1------8----4---------------6-8---1---8---4---2----------|
D|------2------9----6-----777-777---7-9---2---9---6---2----------|
A|------2------9----6-----777-777---7-9---2---9---6---0----------|
E|----0-0---7--7--4-4-----555-555---5-7---0---7---4-----4-2------|

| /  slide up
| \  slide down
| h  hammer-on
| p  pull-off
| ~  vibrato
| +  harmonic
| x  Mute note
============================================================================
Comments