Rush - Spirit Of Radio Chords & Tabs

 

Spirit Of Radio Chords & Tabs

Rush Chords & Tabs

Version: 3 Type: Tab 0 ratings
1 star 2 stars 3 stars 4 stars 5 stars
comments

Spirit Of Radio Tab

   
Rush
"The Spirit of Radio"
(From The 1980 Album Permanent Waves)

Tuning: Standard (EADGBE)

Key:
p = pull off
b = bend
r = release bend
/ = slide up
\ = slide down
~ = vibrato

Intro:

e|--2p0---0--5p0---0--2p0---0--4p2p0---0-----|
B|------3--------3--------3----------3-------|
G|-------------------------------------------|
D|-------------------------------------------|
A|-------------------------------------------|
E|-------------------------------------------|


Play After Intro:

e|--------------------------|
B|--------------------------|
G|--------------------------|
D|--/4--2--0-----0----------|
A|------------4-----4--2----|
E|--------------------------|



Main Riff:

e|-------------------|----------------------|
B|-------------------|----------------------|
G|---------------2---|---2------------------|
D|---2-----------2---|---2-----------2--2---|
A|---2-----------0---|---0--2--3--4-----2---|
E|---0--2--3--4------|------------------0---|


e|-----------------------------------------------|
B|-----------------------------------------------|
G|-----------------------------------------------|
D|---2-----9----9/6-6-6-6-6-6-6-6-6--7-7-7-7-7--9|
A|---2-----9----9/6-6-6-6-6-6-6-6-6--7-7-7-7-7--9|
E|---------7----7/4-4-4-4-4-4-4-4-4--5-5-5-5-5--7|



e|-------0-------0--------0---------------------|   
B|---------0-------0--------0-------------------|
G|---9-9/----4-4------4-4------------6--4-------|
D|---9-9/----4-4------4-4-------9-9--6--4-------|
A|---7-7/----2-2------2-2-------9-9--4--2-------|
E|--------------------4-4-------7-7-------------|

Verse

e|-------0-------0--------0---------------------------|   
B|---------0-------0--------0-------------------------|
G|---9-9/----4-4------4-4-----------------------------|
D|---9-9/----4-4------4-4--------7-7---9-9------------|
A|---7-7/----2-2------2-2--------7-7---7-7------------| X2
E|--------------------4-4--------5-5---7-7------------|



e|-------4-------7---------4p0------------------------|   
B|---------5-------7-------4p0------------------------|
G|---9-9-----4-4------4-4-----------------------------|
D|---9-9-----4-4------4-4--------7-7---9-9------------|
A|---7-7-----2-2------2-2--------7-7---9-9------------|
E|---0-0--------------4-4--------5-5---7-7------------|


[ Tab from: http://www.guitartabs.cc/tabs/r/rush/spirit_of_radio_tab_ver_3.html ]
e|-------0-------0-----------------------------------------|
B|---------0-------0---------------------------------------|
G|---9-9/----4-4-------------------------------------------|
D|---9-9/----4-4----------9/6-6-6-6-6-6-6-6-6-7-7-7-7-7-9--|
A|---7-7/----2-2----------9/6-6-6-6-6-6-6-6-6-7-7-7-7-7-9--|
E|------------------------7/4-4-4-4-4-4-4-4-4-7-7-7-7-7-7--|



Guitar Solo:

e|-------------------------------------------------------------------|
B|-15b17r15b16~~--15b17r15p12~~~b14b15r14b15r14b15r14--12b14r12------|
G|-------------------------------------------------------------------|
D|-------------------------------------------------------------------|
A|-------------------------------------------------------------------|
E|-------------------------------------------------------------------|

e|----------------------------------------------------12-------------|
B|-12~~~~~~~~~~~~~~~~~~~~~--------------------/15b17-----15b17-------|
G|--------------------------14-14-14~~~~-----------------------------|
D|-------------------------------------------------------------------|
A|-------------------------------------------------------------------|
E|-------------------------------------------------------------------|

e|-------12-------12-------12----------------------12-------12-------|
B|-15b17~~~~15b17~~~~15b17~~~~15b17r15-15b17-15b17~~~~15b17~~~~15b17-|
G|-------------------------------------------------------------------|
D|-------------------------------------------------------------------|
A|-------------------------------------------------------------------|
E|-------------------------------------------------------------------|

e|-12-12-15b17b19-15b19-----4-----7----------------------------------|
B|--------------------------------x----------------------------------|
G|--------------------------------------------7--7--6/7---6-6-6-6/7--|
D|-------------------------------------------------------------------|
A|-------------------------------------------------------------------|
E|-------------------------------------------------------------------|

e|-------------------------------------------------------------------|
B|-------------------------------------------------------------------|
G|-7-7-6/7-6/7-6/7-7-7---7/9-9-9-9-9-9-9-9-9---11---11--12-12-12-12--|
D|---------------------------------------------14---14--14-14-14-14--|
A|-------------------------------------------------------------------|
E|-------------------------------------------------------------------|

e|-------------------------------15--12-----------/17----------------|
B|---------------------------------------15-12---------17b20~~~~~----|
G|-11-11-12-12--11-11-12-12--------------------12--------------------|
D|-14-14-14-14--14-14-14-14---14----------------------------------2--|
A|----------------------------------------------------------------2--|
E|----------------------------------------------------------------0--|
Comments