Rush - Spirit Of Radio Chords & Tabs

 

Spirit Of Radio Chords & Tabs

Rush Chords & Tabs

Version: 3 Type: Bass Tab 0 ratings
1 star 2 stars 3 stars 4 stars 5 stars
comments

Spirit Of Radio Bass Tab

Artis: Rush
Song: Spirit of the Radio

This song is played at a amazing tempo, in fact, there is 2 seconds of un tabbable
music with this song. The tempo will change if posted.

Special thanks for my dad who helped me figure out this song.

Intro 
0:03
G|-------------------------------------|
D|---------------2-4-------------------|
A|--------4-4--------4-4---2-2---------|
E|--2*---------------------------------|

G|------------------------------------------|
D|------------------------------------------|
A|--2-2----22-----03456/8-7---0-0-2---------|
E|-------4-----4------------------------2*--|

Between 0:13 to 0:15 I was not able to Figure out.

Chorus
0:16
G|-------------------------------------|
D|--------------------4----------------|
A|-----------2-4-5-6-------------------|
E|--2-4-5-6----------------------------| x4

Riff #1
0:27
G|-------------------------------------|
D|-------------------------------------|
A|-----4*--11111111-2222-4-------------|
E|--2*--------------------------2------|

Riff #2, Play slower
0:33
G|-------------------------------------|
D|-------------------------------------|
A|------4---1---2---4------------------|
E|--2--------------------2-------------|  x5

Riff #1, Play again at normal speed
1:15 (NO BASS BETWEEN 1:25 to 1:30)
G|-------------------------------------|
D|-------------------------------------|
A|-----4*--11111111-2222-4-------------|
E|--2*--------------------------2------| x2

Riff #2, Play Slower
1:30
G|-------------------------------------|
D|-------------------------------------|
A|------4---1---2---4------------------|
E|--2--------------------2-------------|  x2
[ Tab from: http://www.guitartabs.cc/tabs/r/rush/spirit_of_radio_btab_ver_3.html ]
Riff #1, Normal Speed
1:48
G|-------------------------------------|
D|-------------------------------------|
A|-----4*--11111111-2222-4-------------|
E|--2*--------------------------2------| 

Riff #3
1:52
G|-------------------------------------|
D|-------------------------------------|
A|--------4444-11111111-2222-4---------|
E|--2222---------------------------2---| x5

Riff #2
2:35 
G|-------------------------------------|
D|-------------------------------------|
A|------4---1---2---4------------------|
E|--2--------------------2-------------|  x7

Chorus
3:39
G|-------------------------------------|
D|--------------------4----------------|
A|-----------2-4-5-6-------------------|
E|--2-4-5-6----------------------------| x4

Riff 4
3:49, Reggae Beat
G|----------------------------------|
D|----------------------------------|
A|-------44--11--22--44-------------|
E|--22--------------------22--------| x2

Chorus
3:59
G|-------------------------------------|
D|--------------------4----------------|
A|-----------2-4-5-6-------------------|
E|--2-4-5-6----------------------------| x2

Riff 4
4:04, Reggae Beat Again
G|----------------------------------|
D|----------------------------------|
A|-------44--11--22--44-------------|
E|--22--------------------22--------| 

Chorus
4:11
G|-------------------------------------|
D|--------------------4----------------|
A|-----------2-4-5-6-------------------|
E|--2-4-5-6----------------------------| x3

Guitar Solo
4:17
G|-------------------------------------|
D|--------------------4----------------|
A|-----------2-4-5-6-------------------|
E|--2-4-5-6----------------------------| x6

Chorus
4:36
G|-------------------------------------|
D|--------------------4----------------|
A|-----------2-4-5-6-------------------|
E|--2-4-5-6----------------------------| x5

End With this

G|-------|
D|-------|
A|-------|
E|-2--22-|

ENJOY, please Rate
_____________
* = Let Ring |
--------------
Comments