Rush - Show Dont Tell Chords & Tabs

 

Show Dont Tell Chords & Tabs

Rush Chords & Tabs

Version: 2 Type: Bass Tab 0 ratings
1 star 2 stars 3 stars 4 stars 5 stars
comments

Show Dont Tell Bass Tab

   
Show Don't Tell         By: Rush
================================

    w   +w   +w   +w   +w   +w   +w   +w   +e s s s s s s e Q  
+-----+----+----+----+----+----+----+----+--------------------+
|4:---|----|----|----|----|----|----|----|----7---5---5---7---|
|4:-R-|----|----|----|----|----|----|----|------0---0---0---R-|
|-----|----|----|----|----|----|----|----|--------------------|
+-----+----+----+----+----+----+----+----+--------------------+


  +e E s e s s s s s s s s   +e e e e e e s s s s  
+--------------------------+----------------------+
|--------------------------|--------------7-5---7-|
|----7-5-R-3-R-3-R-3-2-----|--------3---R-----7---|
|----------------------3-2-|----3-5---5-----------|
+--------------------------+----------------------+


  e s s s s e s s s s s s s s   e s s s s s s s q+E   +e E s e s s s s s s s s  
+-----------------------------+---------------------+--------------------------+
|---7-5---5-------------------|-------5-------5-----|--------------------------|
|-R-----7---R-3-R-3-R-5-3-R-4-|-0-7-0---0-7-0---R---|----7-5-R-3-R-3-R-3-2-----|
|-----------------------------|---------------------|----------------------3-2-|
+-----------------------------+---------------------+--------------------------+


  +e e e e e e s s s s   s q+E s s s s s s s s   e s s s s s s s q+E  
+----------------------+-----------------------+---------------------+
|--------------5---7---|-5---------------------|---7---5---7---5-----|
|--------3---R---0---0-|---R---3-R-3-3-5-3-R-4-|-0---0---0---0---R---|
|----3-5---5-----------|-----------------------|---------------------|
+----------------------+-----------------------+---------------------+


  +e E s e s s s s s s s s   +e e e e e e s s s s   s q+E s s s s s s s s  
+--------------------------+----------------------+-----------------------+
|--------------------------|--------------5---7---|-5---------------------|
|----7-5-R-3-R-3-R-3-2-----|--------3---R---0---0-|---R---3-R-3-3-5-3-R-4-|
|----------------------3-2-|----3-5---5-----------|-----------------------|
+--------------------------+----------------------+-----------------------+


  H q   H e q e   H H   e e q e e e e   e e e e e e q   H s s e s s e  
+-----+---------+-----+---------------+---------------+---------------+
|-----|---------|---3-|---------------|-----7---5-----|-------5-------|
|---3-|-5-------|-----|-R-3-3-R-------|-------7---7-3-|-5-5-7---7-5-3-|
|-5---|---3-3-3-|-5---|---------3-2-3-|-5-5-----------|---------------|
+-----+---------+-----+---------------+---------------+---------------+


  Q e e q e   e e e e e e e e   H q   H e q e   Q e Q e   e q e e e e e  
+-----------+-----------------+-----+---------+---------+---------------+
|-----3-3-3-|-----------------|-----|---------|-----3-3-|---------------|
|-----------|-R-3-2-3-R-------|---3-|-5-------|---------|-R-3-5-R-------|
|-5-5-------|-----------3-2-3-|-5---|---3-3-3-|-5-5-----|---------3-2-3-|
+-----------+-----------------+-----+---------+---------+---------------+


  e e e e e e q   H s s e s s e   e q e e q e   e e e e e e e e  
+---------------+---------------+-------------+-----------------+
|-----7---5-----|-------5-------|-------3-3-3-|-----2-2---------|
|-------7---7-3-|-5-5-7---7-5-3-|-------------|-3-3-------------|
|-5-5-----------|---------------|-5-5-5-------|---------3-3-2-3-|
+---------------+---------------+-------------+-----------------+


  e s s s s s s q q   +e E s e s s s s s s s s   +e e e e e e s s s s  
+-------------------+--------------------------+----------------------+
|---7-----5-----7---|--------------------------|--------------5---7---|
|-0---0-0---0-0---R-|----7-5-R-3-R-3-R-3-2-----|--------3---R---0---0-|
|-------------------|----------------------3-2-|----3-5---5-----------|
+-------------------+--------------------------+----------------------+


  s q+E s s s s s s s s   e s s s s s s e Q   +e E s e s s s s s s s s  
+-----------------------+-------------------+--------------------------+
|-5---------------------|---7---5---7---5---|--------------------------|
|---R---3-R-3-R-5-3-R-4-|-0---0---0---0---R-|----7-5-R-3-R-3-3-3-2-----|
|-----------------------|-------------------|----------------------3-2-|
+-----------------------+-------------------+--------------------------+


  +e e e e e e s s s s   +q q s s s s s E   w   +h+Q e   w   +h+Q e   w  
+----------------------+------------------+---+--------+---+--------+---+
|--------------7-5---7-|------------------|---|--------|---|--------|---|
|--------3---R-----7---|----R-3-R-3-R-5-3-|---|--------|---|--------|---|
|----3-5---5-----------|------------------|---|--------|---|--------|---|
+----------------------+------------------+-3-+------3-+-3-+------1-+-1-+


  +H+Q e   w   +H+Q e   e e e e e e q   q+e s e e e e   e q e e q e  
+--------+---+--------+---------------+---------------+-------------+
|--------|---|--------|-----7---5-----|---------------|-------3-3-3-|
|--------|---|--------|-------7---7-3-|-5---5---------|-------------|
|--------|---|------3-|-5-5-----------|-------3-3-2-3-|-5-5-5-------|
+------1-+-1-+--------+---------------+---------------+-------------+


  e q e e e e e   e e e e e e e e   H s s e s s e   e e e e e e e e  
+---------------+-----------------+---------------+-----------------+
|---------------|---------5-------|-------5-------|---------3-3---3-|
|-3-3-5---------|-----R-----7-3-4-|-5-5-7---7-5-3-|-----R-------R---|
|-------3-3-2-3-|-5-5---5---------|---------------|-5-5---5---------|
+---------------+-----------------+---------------+-----------------+


  e e e e e e e e   e e e e e e q   q+e s e e e e   e q e e q e  
+-----------------+---------------+---------------+-------------+
|-----------------|-----7---5-----|---------------|-------3-3-3-|
|-R-3-2-3-R-------|-0-0---7---7-3-|-5---5---------|-------------|
|-----------3-2-3-|---------------|-------3-3-2-3-|-5-5-5-------|
+-----------------+---------------+---------------+-------------+


  e e e e e e e e   e e e e e e q   e q+s s s s e s s e   e q e e q e  
+-----------------+---------------+---------------------+-------------+
|-----2-2---------|-----7---5-----|-------------5-------|-------3-3-3-|
|-3-3-------------|-------7---7-3-|-5-5---5-5-7---7-5-3-|-------------|
|---------3-3-2-3-|-5-5-----------|---------------------|-5-5-5-------|
+-----------------+---------------+---------------------+-------------+


  e e e e e e e e   e s s s s s s e Q   +e E s e s s s s s s s s  
+-----------------+-------------------+--------------------------+
|-----2-2---------|---7-----5-----7---|--------------------------|
|-3-3-------------|-0---0-0---0-0---R-|----7-5-R-3-R-3-R-3-2-----|
|---------3-3-2-3-|-------------------|----------------------3-2-|
+-----------------+-------------------+--------------------------+


  +e e e e s e s s s s s   e Q s s s s s s s s   e s s s s s s s s Q  
+------------------------+---------------------+---------------------+
|----------------5---7---|-5-------------------|---7---5---7---5-5---|
|--------3---R-0---0---0-|---R-3-R-3-3-5-3-R-4-|-0---0---0---0-----R-|
|----3-5---5-------------|---------------------|---------------------|
+------------------------+---------------------+---------------------+


  +e E s e s s s s s s s s   +e e e e e e s s s s   +e Q s s s s s s e   w  
+--------------------------+----------------------+--------------------+---+
|--------------------------|--------------7-5---7-|--------------------|---|
|----7-5-R-3-R-3-3-3-2-----|--------3---R-----7---|----R-3-R-3-R-5-3-R-|---|
|----------------------3-2-|----3-5---5-----------|--------------------|---|
+--------------------------+----------------------+--------------------+-3-+


  +h+Q e   w   +h+Q e   w   +h+Q e   w   +h+Q e   w   +w   w   +w   h h  
+--------+---+--------+---+--------+---+--------+---+----+---+----+-----+
|--------|---|--------|---|--------|---|--------|---|----|---|----|-----|
|--------|---|--------|---|--------|---|--------|---|----|---|----|-----|
|--------|---|--------|---|--------|---|--------|---|----|-5-|----|-5-1-|
+------3-+-3-+------1-+-1-+------1-+-1-+------3-+-3-+----+---+----+-----+

[ Tab from: http://www.guitartabs.cc/tabs/r/rush/show_dont_tell_btab_ver_2.html ]
  Q e+h   w   s s s s s s s s s s s s e e   h h   Q e+h   e e e e e s^s^s e e  
+-------+---+-9-----9-----7-----5-----7-5-+-----+-------+---------5-4-5-4-----+
|-------|---|---0-0---0-0---0-0---0-0-----|-----|-------|-----------------7-5-|
|-3-----|-5-|-----------------------------|-----|-3-----|---------------------|
|---3---|---|-----------------------------|-5-1-|---3---|-5-5-5-5-------------|
+-------+---+-----------------------------+-----+-------+---------------------+


  e e e e e e e e   e e e e e e e e   e e e e e e e e   q e s s s e e s s  
+-----------------+-----------------+-----------------+-----4-5-5-4-------+
|-3-3-2-2---------|-----------------|-----------------|-------------7-5-5-|
|---------5-5-3-5-|-----3-7-8-8-7-5-|-3-3-5-7---------|-------------------|
|-----------------|-5-5-------------|---------3-3-2-3-|-5-5---------------|
+-----------------+-----------------+-----------------+-------------------+


  e e e e e e e e   e e e e e e e e   e e e e e e e e   e s s s s s s q q  
+-----------------+-----------------+-----------------+-------------------+
|-----------------|-----------------|-----------------|---------5-----7---|
|-8-8-7-7-5-5-3-5-|-----3-7-8-8-7-5-|-3-3-5-7-R-------|-0-0-0-0---R-0---R-|
|-----------------|-5-5-------------|-----------3-2-3-|-------------------|
+-----------------+-----------------+-----------------+-------------------+


  s  s s  s  s s s s s s s s s s s s   e s s s s s s q s s e  
+------------------------------------+-------------------7---+
|---10-9----10-7-6-5-4-7---5---------|---7-----5-----7-------|
|-0------12--------------7---7-6-5-3-|-0---0-0---0-0---R---R-|
|------------------------------------|-----------------------|
+------------------------------------+-----------------------+


  s s s s s s s s s s s s s s s s   +e s s s s s s q s  s s s  
+-5-----7-----5-------------------+--------------------14-----+
|---0-0---0-0---0-----------------|----7-----5-----7------0-0-|
|-----------------3-0-5-0-3-0-5-0-|------0-0---0-0---R--------|
|---------------------------------|---------------------------|
+---------------------------------+---------------------------+


   s s s  s s s  s s  s s  s s  s s e   e s s s s s s s s s s s s s s  
+-12-----11-----12---11---12---11-9---+-------------------------------+
|----0-0----0-0----0----0----0--------|---7-----5-----7-----5-----7---|
|-----------------------------------R-|-0---0-0---0-0---0-0---0-0---0-|
|-------------------------------------|-------------------------------|
+-------------------------------------+-------------------------------+


  s s s s s s s s s s s s s s s s   e s s e s e s s s e s s  
+---------------------------------+-------------------------+
|---5-----7-----5-----5-----5---7-|---7---5-7-----7---5-7---|
|-0---0-0---0-0---R-5---R-5---R---|-0---0-----0-0---0-----0-|
|---------------------------------|-------------------------|
+---------------------------------+-------------------------+


  +s s E E s s s s s s s s   +e e e e e e e s s   +s s s s e s e s s s s s s s  
+--------------------------+--------------------+------------------------------+
|--------------------------|------------7-5-7---|------7---5-7-----7---5---7---|
|----0-7-5-3-R-3-R-3-2-----|--------3-0-------0-|----0---0-----0-0---0---0---0-|
|----------------------3-2-|----3-5-------------|------------------------------|
+--------------------------+--------------------+------------------------------+


  e s s e s e s s s e s s   +s s E E s s s s s s s s   +e e e e e e e s s  
+-------------------------+--------------------------+--------------------+
|---7---5-7-----7---5-7---|--------------------------|------------7-5-7---|
|-0---0-----0-0---0-----0-|----0-7-5-3-R-3-R-3-2-----|--------3-0-------0-|
|-------------------------|----------------------3-2-|----3-5-------------|
+-------------------------+--------------------------+--------------------+


  +s s s s e e+H   e e e e e e e e   e e e e e e e e   q e e e e e e  
+----------------+---7-------7-7-7-+-----7---7---7-7-+---7-------7---+
|------7---5-7---|-----------------|-----------------|---------------|
|----0---0-------|-5---R-5-R-------|-R-5---5---5-----|-5---5-R-5---5-|
|----------------|-----------------|-----------------|---------------|
+----------------+-----------------+-----------------+---------------+


  e e q e e e e   e e e e e e e e   +e e e e e e e e   e e e e e e e e  
+---------------+-------5---5---5-+------------------+-5-----5-----5-5-+
|---------------|-----------------|------------------|-----------------|
|-R-5-5-5-7-5-7-|-3-3-3---3---3---|------------------|---3-3---3-3-----|
|---------------|-----------------|----1-1-1-5-5-1-5-|-----------------|
+---------------+-----------------+------------------+-----------------+


  e e e e e e e e   e e e e e e e e   e e e e e e e e   e e e e e e e e  
+-5---------------+-----7-7---7---7-+---7---7---------+-----7-7---7-7---+
|-----------------|-----------------|-------------3---|-----------------|
|-----------------|-5-5-----R---R---|-R---R---3-3---3-|-5-5-----5-----5-|
|---1-1-1-5-5-1-5-|-----------------|-----------------|-----------------|
+-----------------+-----------------+-----------------+-----------------+


  e e e e e e e e   e e e e e e e e   e e e e e e e e   e e e e e e e e  
+-----------------+-----5-------5---+-----------------+-------5---------+
|-----------------|-----------------|-----------------|-----------------|
|-R-5-R-5-5-7-5-7-|-3-3---3-3-3---3-|-R---------------|-3-3-3---3-3-3---|
|-----------------|-----------------|---1-1-1-5-5-1-5-|---------------0-|
+-----------------+-----------------+-----------------+-----------------+


  e e e e e e e e   e e e e e e e e   +e e e e e e e e   Q q e e e  
+-----------------+-----7-7---7---5-+------4-----------+---------5-+
|-----------------|-----------------|----5---5-7---5-7-|-----------|
|-----------------|-5-5-----5---5---|------------R-----|-5-5-5-5---|
|-1-1-1-1-5-5-1-5-|-----------------|------------------|-----------|
+-----------------+-----------------+------------------+-----------+


  +e e e e q e e   e e e q e e e   e e e e e e e e   e e e e e e e e  
+------4---------+-------5---5---+-----------------+-------5-----5---+
|----5---5-7-5-3-|---------------|-----------------|-----------------|
|----------------|-3-3-3---3---3-|-R---------------|-3-3-3---R-3---R-|
|----------------|---------------|---1-1-1-5-5-1-5-|-----------------|
+----------------+---------------+-----------------+-----------------+


  +e e e e e e   e e e e e e e e   +e e e e q e e  
+--------------+-------7-------5-+------4---------+
|--------------|-----------------|----5---5-7-5-7-|
|--------------|-5-5-5---5-5-5---|----------------|
|----1-5-1-5-5-|-----------------|----------------|
+--------------+-----------------+----------------+


==========================================================================

     __         Created using the Bass Tab Creator
   +|o |        by Mario D'Alessio (motcid!marble!dalessio)
   +|oo|+       
   +|oo|+       Notes:  w = Whole  h = Half  q = Quarter
     ||                 e = 8th    s = 16th  t = 32nd  x = 64th
     ||
     ||                 Capital durations are dotted notes
     ||                 (equal to 1.5 times the duration value)
     ||
     ||             #
     ||         +----+                   +----+
  _  ||  _      |*--*+  = MEASURE        |4:--|  = TIME
  \\_||_//      |*--*+    REPEATS        |4:--|    SIGNATURES
   | [] |       +----+   (#=Num Repeats) +----+
   | || |
  /  []  \      + = TIE         ^  = TRIPLET           > = BEND
  \______/      H = HAMMER ON   \  = SLIDE TO FRET     R = Rest
                P = PULL OFF    \X = SLIDE TO NOWHERE  ~ = Trill
Comments