Rush - Roll The Bones Chords & Tabs

 

Roll The Bones Chords & Tabs

Rush Chords & Tabs

Version: 3 Type: Bass Tab 0 ratings
1 star 2 stars 3 stars 4 stars 5 stars
comments

Roll The Bones Bass Tab

   
Band: Rush
Album: Roll the Bones
Song: Roll the Bones

Rush, in 1991, put out an album      
with comepletely new material, and
the first single off of it was
"Roll the Bones"
                                  p     
Sounds/Effects                 G|------|
|-------------|                D|------|    
 * = Let Ring                  A|-3----| example of a pop
 p = Pop                       E|------|
|-------------|
[ Tab from: http://www.guitartabs.cc/tabs/r/rush/roll_the_bones_btab_ver_3.html ]
     Tip: Play this along with the                     |----------|
          song to get the feel and                      Song Order
          tempo                                        |----------|
                                                        Main Riff x1  -0:01-
                                                        Riff#1 x1     -0:08-
Main Riff                                               Riff#2 x1     -0:17-
G|-------------------------------|                      Riff#1 x1     -0:24-
D|-------------------------------|                      Riff#2 x1     -0:32-
A|-2-3-33-3-4-5-55-4-5-6-66-2333-|                      Chorus x1     -0:39-
E|-------------------------------|                      No Bass     1:05-1:21
                                                        Main Riff x1  -1:22-
Riff#1                                                  Riff#1 x1     -1:31-
G|---------------------------|                          Riff#2 x1     -1:40-
D|---------------------------|                          Riff#1 x1     -1:45-
A|-233--233-2-332--233-2-233-|                          Riff#2 x1     -1:55-
E|---------------------------|                          Chorus x1     -2:00-
                                                        No Bass     2:27-2:54
Riff#2                                                  Main Riff x2  -2:55-
G|------------------------|                             Riff#1 x4     -3:12-
D|------------------------|                             Riff#2 x1     -3:42-  
A|-2-3-33-3-4-5-55-4-5-6*-|                             Riff#1 x4     -3:51- 
E|------------------------|                             Main Riff till end

Chorus
   p p p p p p p p p p p p p p
G|-------------------------------|
D|-------------------------------|
A|-7-5-6-7-5-4-3-----------------|
E|---------------5-3-4-5-3-2-1---|

   p p p p p p p ppp ppp p p
G|---------------------------|
D|---------------------------|
A|-7-5-6-7-5-4-3-333-333-4-5-|
E|---------------------------|

   p p p p p p p p p p p p p p
G|-----------------------------|
D|-----------------------------|
A|-7-5-6-7-5-4-3---------------|
E|---------------5-3-4-5-3-2-1-|

   p p p p p p p ppp ppp
G|-----------------------|
D|-----------------------|
A|-7-5-6-7-5-4-3-333-333-|
E|-----------------------|

   p p p p p p p p p p p p p p
G|-----------------------------|
D|-----------------------------|
A|-7-5-6-7-5-4-3---------------|
E|---------------5-3-4-5-3-2-1-|

   p p p p p p p ppp ppp
G|-----------------------|
D|-----------------------|
A|-7-5-6-7-5-4-3-333-333-|
E|-----------------------|
Comments