Rush - Presto Chords & Tabs

 

Presto Chords & Tabs

Rush Chords & Tabs

Version: 2 Type: Bass Tab 0 ratings
1 star 2 stars 3 stars 4 stars 5 stars
comments

Presto Bass Tab

   
Presto          By: Rush
========================

    Q e h   +w   Q e h   +w   w   +w   +w   +w   +w   +w   +w   +w   +w   +w  
+---------+----+-------+----+---+----+----+----+----+----+----+----+----+----+
|4:-------|----|-------|----|-R-|----|----|----|----|----|----|----|----|----|
|4:-7-5-5-|----|-------|----|---|----|----|----|----|----|----|----|----|----|
+---------+----+-5-3-3-+----+---+----+----+----+----+----+----+----+----+----+


  +w   +w   q e e+h   e s e e s e e s s   Q e+h   Q e+h   h h   Q Q s e  
+----+----+---------+-------------------+-------+-------+-----+---------+
|----|----|---R-----|-------------------|-------|-------|-----|---------|
|----|----|-5---7---|-2-2-0-2-2-0-2-2-3-|-3-1---|-------|-3-1-|---------|
+----+----+---------+-------------------+-------+-1-1---+-----+-1-1-1-1-+


  Q e+h   Q e+h   h h   Q e e q   Q e h   +w   Q e h   +w   e e e e e e e e  
+-------+-------+-----+---------+-------+----+-------+----+-----------------+
|-------|-------|-----|---------|-------|----|-------|----|-----------------|
|-3-1---|-------|-3-1-|---------|-7-5-5-|----|-------|----|-5---5-3-3-3-3-3-|
+-------+-1-1---+-----+-1-1-1-1-+-------+----+-5-3-3-+----+---5-------------+


  e e e e e e e e   e e e e e e e e   e e e e e e e e   e e e e e e e e  
+-----------------+-----------------+-----------------+-----------------+
|-----------------|-----------------|-----------------|-----------------|
|-3-3-3-3-3-3-3-3-|-5---5-3-3-3-3-3-|-3-3-3-3-3-3-3-3-|-5---5-----------|
+-----------------+---5-------------+-----------------+---5---3-3-3-3-3-+


  e e e e e e e e   e e e e e e e e   e e e e e e e e   e e e e e e e e  
+-----------------+-----------------+-----------------+-----------------+
|---------R-------|-----------------|-----------------|-----------------|
|-----------------|-----------------|-----------------|-5---5-3-3-3-3-3-|
+-3-3-3-5---5-5-5-+-5-5-5-5-3-3-3-3-+-3-3-3-3-3-3-3-3-+---5-------------+


  e e e e e e e e   e e e e e e e e   e e e e e e e e   e e e e e e e e  
+-----------------+-----------------+-----------------+-----------------+
|-----------------|-----------------|-----------------|-----------------|
|-3-3-3-3-3-3-3-3-|-5---5-3-3-3-3-3-|-3-3-3-3-3-3-3-3-|-5---5-----------|
+-----------------+---5-------------+-----------------+---5---3-3-3-3-3-+


  e e e e e e e e   e e e e e e e e   e e e e e e e e    q h   +w   +w   +w  
+-----------------+-----------------+-----------------+------+----+----+----+
|-----------------|-----------------|-----------------|-12-R-|----|----|----|
|-----------------|---------2-2-2---|-----2-2-2-------|------|----|----|----|
+-3-3-3-5-5-5-5-5-+-5-5-5-5-------3-+-3-3-------3-3-3-+------+----+----+----+


  +w   +H q   q e e+h   +w   +w   +H q   Q e+h   E s e E s e e e   Q q e e e  
+----+------+---------+----+----+------+-------+-----------------+-----------+
|----|------|-----R---|----|----|------|-------|-----------------|-----------|
|----|------|---------|----|----|----8-|-5-7---|-2-2-0-2-2-0-2-0-|-3-1-1-1-1-|
+----+----5-+-8-5-----+----+----+------+-------+-----------------+-----------+


  e e e e e e e e   e e e e e e e e   e e e e e s s e e   e e e e e e e e  
+-----------------+-----------------+-------------------+-----------------+
|-----------------|-----------------|-------------------|-----------------|
|-----------------|-3-3-3-3-1-1-1-1-|-------------------|-3-3-3-1-1-1-1-1-|
+-1-1-1-1-1-1-1-1-+-----------------+-1-1-1-1-1-1-1-1-1-+-----------------+


  e e e e e e e   e e e e e e e e   Q Q e^e^e^  Q e h   +w   Q e h   +w  
+---------------+-----------------+-----------+-------+----+-------+----+
|---------------|-----------------|-----------|-------|----|-------|----|
|---------------|-3-3-3-3-1-1-1-1-|-----------|-7-5-5-|----|-------|----|
+-1-1-1-1-1-1-1-+-----------------+-1-1-1-1-1-+-------+----+-5-3-3-+----+


  e e e e e e e e   e e e e e e e e   e e e e e e e e   e e e e e e e e  
+-----------------+-----------------+-----------------+-----------------+
|-----------------|-----------------|-----------------|-----------------|
|-5---5-3-3-3-3-3-|-3-3-3-3-3-3-3-3-|-5---5-3-3-3-3-3-|-3-3-3-3-3-3-3-3-|
+---5-------------+-----------------+---5-------------+-----------------+


  e e e e e e e e   e e e e e e e e   e e e e e e e e   e e e e e e e e  
+-----------------+-----------------+-----------------+-----------------+
|-----------------|-----------------|-----------------|-----2-2-2-------|
|-5---5-----------|-----------------|---------2-2-2---|-----------------|
+---5---3-3-3-3-3-+-3-3-3-5-5-5-5-5-+-5-5-5-5-------3-+-3-3-------3-3-3-+


  e e e e e e e e   e e e e e e e e   e e e e e e e e   e e e e e e e e  
+-----------------+-----------------+-----------------+-----------------+
|-----------------|-----------------|-----2-----------|-----------------|
|-5---5-3-3-3-3-3-|-3-3-3-3-3-3-3-3-|-5-----3-3-3-3-3-|-3-3-3-3-3-3-3-3-|
+---5-------------+-----------------+---5-------------+-----------------+


  e e e e e e e e   e e e e e e e e   e e e e e e e e   e e e e e e e e  
+-----------------+-----------------+-----------------+-----------------+
|-----------------|-----------------|-----------------|-----------------|
|-5---5-----------|-----------------|---------2-2-2---|-----2-2-2-------|
+---5---3-3-3-3-3-+-3-3-3-5-5-5-5-5-+-5-5-5-5-------3-+-3-3-------3-3-3-+


  e e e e e e e e   e e e e e e e e   e s e e e e e e   e s e q e e e  
+-----------------+-----------------+-----------------+---------------+
|-2-2-2-4-4-4-2-4-|-----------------|-2-2-2-4-4-4-2-4-|---------------|
|-----------------|-2-2-2-0-0-0-2-0-|-----------------|-4-4-2-4-2-4-2-|
+-----------------+-----------------+-----------------+---------------+


  q e e e e e e   q e q e e e   e e e e e e e e   e s e e s s e e  
+---------------+-------------+-----------------+-----------------+
|-2-2-4-4-4-2-4-|-------------|-2-2-R-4-4-4-2-4-|-----------------|
|---------------|-2-2-0-0-2-0-|-----------------|-4-4-2-4-4-2-4-2-|
+---------------+-------------+-----------------+-----------------+

[ Tab from: http://www.guitartabs.cc/tabs/r/rush/presto_btab_ver_2.html ]
  q e e e e e e   e s s e e e e e e   e s s e e e e e e   e s e q e q  
+---------------+-------------------+-------------------+-------------+
|-2-2-4-4-4-2-4-|-------------------|-2-2-2-2-4-4-4-2-4-|-------------|
|---------------|-2-2-2-2-0-0-0-2-0-|-------------------|-4-4-2-4-2-4-|
+---------------+-------------------+-------------------+-------------+


  e e e e e e e e   e s s e q e e e   e s s e e e e e e   e e e s e s e e e  
+-----------------+-----------------+-------------------+-------------------+
|-4-4-4-6-6-6-4-6-|-----------------|-4-4-4-4-6-6-6-4-6-|-------R-----------|
|-----------------|-4-4-4-4-2-2-4-2-|-------------------|-6-6-6---4-4-4-6-4-|
+-----------------+-----------------+-------------------+-------------------+


  e e e e e e e e   s s s s e e e e e e   e s s e e e e e e   e e e e e e e e  
+-----------------+-----6---6-----------+-------------------+-----------------+
|-4-4-4-6-6-6-4-6-|---------------------|-4-4-4-4-6-6-6-4-6-|-----------------|
|-----------------|-4-4---4---2-2-2-4-2-|-------------------|-6-6-6-4-4-4-6-4-|
+-----------------+---------------------+-------------------+-----------------+


  Q q e e e   e e e q e e e   e e e q e e e   e s e e e e e   Q q e e e  
+-----------+---------------+---------------+---------------+-----------+
|-5-7-7-5-7-|---------------|-5-5-5-7-7-5-7-|---------------|-5-7-7-5-7-|
|-----------|-5-5-5-3-3-5-3-|---------------|-7-5-5-7-5-7-5-|-----------|
+-----------+---------------+---------------+---------------+-----------+


  e e e q e e e   e e e e e e e e   e s e e+h   h q q   e e e e e e e e  
+-7-7-7-5-5-7-5-+-----------------+-----------+-------+-----------------+
|---------------|-5-5-5-7-7-7-5-7-|-----------|-------|---------R-------|
|---------------|-----------------|-7-7-5-7---|-5-3-3-|-3-3-3-3---3-3-3-|
+---------------+-----------------+-----------+-------+-----------------+


  e e e e e e e e   e e e e e e e e   e e e e e e e e   e e e e e e e e  
+-----------------+-----------------+-----------------+-----------------+
|-----------------|-----------------|-----------------|-----------------|
|-5---5-3-3-3-3-3-|-3-3-3-3-3-3-3-3-|-5---5-----------|-----------------|
+---5-------------+-----------------+---5---3-3-3-3-3-+-3-3-3-5-5-5-5-5-+


  e e e e e e e e   e e e e e e e e   e e e q e e e   e e e q e e e  
+-----------------+-----------------+---------------+---------------+
|-----------------|-----------------|-----2---------|---------------|
|---------2-2-2---|-----2-2-2-------|-5-----3-3-3-3-|-3-3-3-3-3-3-3-|
+-5-5-5-5-------3-+-3-3-------3-3-3-+---5-----------+---------------+


  e e e e e e e e   e e e q e e e   e e e Q e e   e e e q e e e  
+-----------------+---------------+-------------+---------------+
|-----2-----------|---------------|-------------|-----R---------|
|-5-----3-3-3-3-3-|-3-3-3-3-3-3-3-|-5---5-------|---------------|
+---5-------------+---------------+---5---3-3-3-+-3-3---5-5-5-5-+


  e e e e e e e e   e e e e e e e e   e e e e q e e   e e e q e e e  
+-----------------+-----------------+---------------+---------------+
|-----------------|-----2-2-2-0-0-0-|-2-------------|---------------|
|---------2-2-2---|-----------------|---2-----3-3-3-|-3-3-3-3-3-3-3-|
+-5-5-5-5-------3-+-3-3-------------+-----5-3-------+---------------+


  e e e e q e e   e e e q e e e   e e q q e e   e e e q e e e  
+---------------+---------------+-------------+---------------+
|---------------|---------------|-------------|-----R---------|
|-5---5-3-3-3-3-|-3-3-3-3---3-3-|-5-3---------|---------------|
+---5-----------+---------3-----+-----5-3-3-3-+-3-3---5-5-5-5-+


  e e e e e e e e   e e q e e e e   s s e e e q e e   e e e q e e e  
+-----------------+---------------+-2-2-0-----------+---------------+
|-----------------|-----2-2-0-0-0-|-------2-0-------|-----R---------|
|---------2-2-2---|---------------|-----------3-3-3-|-3-3---3-3---3-|
+-5-5-5-5-------3-+-3-3-----------+-----------------+-----------3---+


  e e e e q e e   e q e e e e e   e e e e h   +e e e q e e e   e e e e q e e  
+---------------+---------------+-----------+----------------+---------------+
|---------------|-R-------------|-----------|----5-------7---|-----7---------|
|-5---5-3-3-3-3-|---3-3-3---3-5-|-3-2-------|----------------|---------2-2---|
+---5-----------+---------3-----+-----5-3-3-+------3-5-5---5-+-5-5---5-----3-+


  e e e e e e e e   e e e e q e e   e q q e e e   e e s s e q e e  
+-----------------+---------------+-------------+---------------5-+
|-----------------|---------------|-R-----------|-----2-2---------|
|-----2-2-2-------|-5---5---3-3-3-|---3-3-2-----|-5-------5-3-3---|
+-3-3-------3-3-3-+---5---5-------+---------5-3-+---5-------------+


  +e q q e e e   +e e q q e e   e e e q e e e   e e e e e e e e  
+----4-2---4-4-+----4-4-------+---------------+-------2---2-----+
|--------5-----|--------------|-5-----------5-|-7-7-5---R---5-9-|
|--------------|--------------|---------------|-----------------|
+--------------+--------3-3-3-+---3-3-5-5-5---+-----------------+


  +e e e q e e e   s s e e e q e e   e e e e e e e e   e e e e e e e e  
+----------------+-----------------+-5-------5-------+-------------5---+
|----7-5-9-7-5-7-|-2-2---2---------|-----------------|-------R---------|
|----------------|-----2---5-3-3-3-|---3-3-3---3-5-3-|-5-7-5---3-3---3-|
+----------------+-----------------+-----------------+-----------------+


  e e e q e e e   e e e e q e e   e e e q e e e     e e e e  
+---------------+---------------+---------------+-----------+
|---------------|-----------5---|---5---7-7-5-7-|2:-7-7-5-7-|
|-3-2-2-3-5-3-2-|-3-2---5-------|---------------|4:---------|
+---------------+-----5---3---3-+-3---3---------+-----------+


==========================================================================

                Created using the Bass Tab Creator
     __         by Mario D'Alessio (motcid!marble!dalessio)
   +|oo|+       
   +|oo|+       Notes:  w = Whole  h = Half  q = Quarter
     ||                 e = 8th    s = 16th  t = 32nd  x = 64th
     ||
     ||                 Capital durations are dotted notes
     ||                   (equal to 1.5 times the duration value)
     ||
     ||             #
     ||         +----+                   +----+
  _  ||  _      |*--*+  = MEASURE        |4:--|  = TIME
  \\_||_//      |*--*+    REPEATS        |4:--|    SIGNATURES
   | [] |       +----+   (#=Num Repeats) +----+
   | || |
  /  []  \      + = TIE         ^  = TRIPLET           > = BEND
  \______/      H = HAMMER ON   \  = SLIDE TO FRET     R = Rest
                P = PULL OFF    \X = SLIDE TO NOWHERE  ~ = Trill
Comments