Rush - Passage To Bangkok Chords & Tabs

 

Passage To Bangkok Chords & Tabs

Rush Chords & Tabs

Version: 2 Type: Tab 1 rating
1 star 2 stars 3 stars 4 stars 5 stars
comments

Passage To Bangkok Tab


rush-passage to bangkok

by-tyler patton




guitar 1
--------------------------------------
--------------------------------------
--------------------------------------
-------2-0-2>0------------------------ (four times)
---------------2-------3-2-3>2-------
-0-0-0-----------0-0-0---------3-------


guitar 2
--------------------------------------
-8-7-8.7-4-4-4-4-5-4-5>4-0------------
-------------------------------------- (two times)
--------------------------------------
--------------------------------------
--------------------------------------


--------------------------------------
--------------------------------------
-9-7-9-4-4-5-5-5----------------------
-9-7-9-4-4-5-5-5-5--------------------
-7-5-7-2-2-3-3-3-5--------------------
-----------------3--------------------


-7-5-7-7-2-3-2-3-3-3-3-3---2----------
-7-5-8-7-3-3-3-3-3-3-3-3-2-3----------
-7-5-9-7-2-2-2-0-0-0-0-0-2-2----------
-7-5-9-7-------0-0-0-0-0-2------------
-5-3-7-5-------2-2-2-2-2--------------
---------------3-3-3-3-3--------------


-7-5-7-7-7-2-2-3-3-3-3-3--------------
-7-5-8-7-8-3-3-3-3-3-3-3-2------------
-7-5-9-7-9-2-2-0-0-0-0-0-2------------
-7-5-9-7-9-----0-0-0-0-0-2------------
-5-3-7-5-7-----2-2-2-2-2--------------
---------------3-3-3-3-3--------------



guitar 1
--------------------------------------
--------------------------------------
--------------------------------------
-------2-0-2>0------------------------ (four times)
---------------2-------3-2-3>2-------
-0-0-0-----------0-0-0---------3-------


guitar 2
--------------------------------------
-8-7-8.7-4-4-4-4-5-4-5>4-0------------
-------------------------------------- (two times)
--------------------------------------
--------------------------------------
--------------------------------------


--------------------------------------
--------------------------------------
-9-7-9-4-4-5-5-5----------------------
-9-7-9-4-4-5-5-5-5--------------------
-7-5-7-2-2-3-3-3-5--------------------
-----------------3--------------------


-7-5-7-7-2-3-2-3-3-3-3-3---2----------
-7-5-8-7-3-3-3-3-3-3-3-3-2-3----------
-7-5-9-7-2-2-2-0-0-0-0-0-2-2----------
-7-5-9-7-------0-0-0-0-0-2------------
-5-3-7-5-------2-2-2-2-2--------------
---------------3-3-3-3-3--------------


-7-5-7-7-7-2-2-3-3-3-3-3--------------
-7-5-8-7-8-3-3-3-3-3-3-3-2------------
-7-5-9-7-9-2-2-0-0-0-0-0-2------------
-7-5-9-7-9-----0-0-0-0-0-2------------
-5-3-7-5-7-----2-2-2-2-2--------------
---------------3-3-3-3-3--------------


solo

---------------------------------------------------------------------
10---------------------------------_-_-_-_-_-_--12-!-----------------
-9->-(11)->-9-7-7->-(9)->-7---7->-4-7-4-7-4-7-4----------------------
----------------------------9----------------------------------------
---------------------------------------------------------------------
---------------------------------------------------------------------

---10-12-10----10----------------------_-----------------------------
12----------12----12->-(15)->-12-!---14-12_----12--------------------
-------------------------------------------13-----14->-(16)->-14-----
---------------------------------------------------------------------
---------------------------------------------------------------------
---------------------------------------------------------------------


---------------------------------------------------------------------
12-10----------------------------------------------------------------
------11-9-11-9->-(11)->-9-!-->-11-9->-(11)-9-9->-(11)->-9--9-8-7----
---------------------------------------------------------------------
---------------------------------------------------------------------
---------------------------------------------------------------------

[ Tab from: http://www.guitartabs.cc/tabs/r/rush/passage_to_bangkok_tab_ver_2.html ]
---------------------------------------------------------------------
---------------------------------------------------------------------
---------------------------------------------------------------------
9-8-7----------------------------------------------------------------
------9-8-7--------------------_-----------_---------------_---------
------------11-10-9-7--7-7-7--7-9--9-9-9--9-10--10-10-10-10-12-12-12-


---------------------------------------------------------------------
--------------------------_------------------------------------------
--------7---7-9->-(11)->-9-7_----------------------------------------
----7-9---9------------------7---------------------------------------
9-9------------------------------------------------------------------
---------------------------------------------------------------------

                                                               _  _
----------------------------------------7-9-10-10->-(12)-10-7-7-10-7_---7
-----------7-10-10->-(12)->-10-7---7-10------------------------------10--
9-9->-(11)-----------------------9---------------------------------------
-------------------------------------------------------------------------
-------------------------------------------------------------------------
-------------------------------------------------------------------------


------10-----------------------------_------------_-----------_------
10-12----12->-(15)->-12--12-12-12--10-12-12-12--12-10_---10-10-7-----
------------------------------------------------------11-------------
---------------------------------------------------------------------
---------------------------------------------------------------------
---------------------------------------------------------------------


---------------------------------------------------------------------
-_---------------10----------10----------10----------10-10-----------
9-7_--7-9->-(11)----9->-(11)----9->-(11)----9->-(11)-----9->-(11)----
----9----------------------------------------------------------------
---------------------------------------------------------------------
---------------------------------------------------------------------


-------------------------------------17----------_---------------------
---------10-10-------------17->-(19)----(19)->-17-15_---15-----------15
9->-(11)-----9->-(11)->-16---------------------------16----14->-(16)---
-----------------------------------------------------------------------
-----------------------------------------------------------------------
-----------------------------------------------------------------------


------------------------------------------------------------------_--
----------15-----------15------------12-12-10----10-12->-(14)->-12-10
14->-(16)----14->-(16)----14->-(16)-----------11---------------------
---------------------------------------------------------------------
---------------------------------------------------------------------
---------------------------------------------------------------------


--2-|----------------------------------------------------------------
--3-|----------------------------------------------------------------
9-2-|----------------------------------------------------------------
--0-|---------0-0-1-1-2----------------------------------------------
----|-0-0-4-4--------------------------------------------------------
----|----------------------------------------------------------------





_______________________
used symbols:

_  - Indicates a hammer-on or pull-off (You should know which is appropriate)
>  - Indicates a bend-up or down or a slide. With a bend, the note to bend to
     is between '(' and ')'. Use the whammy for a downbend. With a slide, the
     follow-up note is the one to be slid to.
|  - A pair of these indicate a part of music, not the usuals bars.
!  - Indicates vibrato.



i did the best i could and it should be right but dont get mad if i msde a mistake!

tyler patton:
wonderboy1993@hotmail.com
Comments