Rush - New World Man Chords & Tabs

 

New World Man Chords & Tabs

Rush Chords & Tabs

Version: 3 Type: Bass Tab 0 ratings
1 star 2 stars 3 stars 4 stars 5 stars
comments

New World Man Bass Tab

   
NEW WORLD MAN by RUSH
submitted by punkbass479
bass tab
|G|
|D|
|A|
|E|

riff #1:
|---------------------------------|
|----------3---------------3------|
|----1--3-----1-3----1--3-----1-3-|
|-1---------------1---------------|repeat as needed

riff #2:
|----------------4-----------------------4---|
|---5-7------5-----7------5---7------5-----7-|
|-5------5-5---5------5-5---5----5-5---5-----|
|--------------------------------------------|repeat as needed
[ Tab from: http://www.guitartabs.cc/tabs/r/rush/new_world_man_btab_ver_3.html ]
pre-chorus:
|---------------------------------|
|---------------------------------|
|-----11---------------11---------|
|-11------33--33---11------33--33-|

chorus:
|---------------------------------------5-5-754----|
|--------4-5-7--------4-5-7-------4-5-7--------75--|
|-5-5-75------5-5-75-------5-5-75----------------5-|
|--------------------------------------------------|repeat as needed

post-chorus:
|--------------------|
|--------------------|
|--------111111------|
|-111111-------333333|X2
then chorus again


i dunno the order but when i play that along w/ it, it sounds perfect. 
RATE PLEASE!!!
Comments