Rush - New World Man Chords & Tabs

 

New World Man Chords & Tabs

Rush Chords & Tabs

Version: 2 Type: Bass Tab 0 ratings
1 star 2 stars 3 stars 4 stars 5 stars
comments

New World Man Bass Tab

   
Rush: "New World Man"  Bass Tab
===============================

Original Transcription From: Guitar For The Practicing Musician
Converted by: Mario D'Alessio


     w 4   q q h   e e e e     q q        q  q q q   +e e e e e e q 4 
+-------+--------+--------------------+------------+-----------------+
|*4:-R-*|*---5-7-|-R---5---(7)/9-7\X-*|*---------3-|------R---------*|
|*4:---*|*-5-----|---5---5-----------*|*-----1-3---|----1---1-3-3---*|
+-------+--------+--------------------+--(1)-------+--------------1--+


  e e e e q q   e e e e     q q      e e e e h   e e e e     q q   3 
+-------------+---------(7)/9-7\X-+------------+---------(7)/9-7\X--+
|-----5---7---|-----5-------------|*-----5---7-|-----5-------------*|
|-5-5---5---0-|-5-5---5-----------|*-5-5---5---|-5-5---5-----------*|
+-------------+-------------------+------------+--------------------+


   q q q q   +q q q e e 3  q q q e e   e e q e e q     e e h e e  
+----------+-------------+-----------+---------------+-----------+
|*-------3-|------------*|-------3-3-|-----R---------|-----R-2-3-|
|*---1-3---|----1-3-----*|---1-3-----|-5-5---5-5-----|-----------|
+--1-------+--------1-1--+-1---------+-----------5\X-+-1-1-------+


  e e e e e e e e   e e e e e e e e   e e e e    e e    e e   e e q e e e e  
+-----------------+-----------------+-----------------------+---------------+
|-------------R---|-------------R---|-----------------------|-------3-3-2-3-|
|-1-1-1-1-0-0---0-|-----------------|----------X/5-4--X/5-3-|---------------|
+-----------------+-3-3-1-2-3-3---3-+-3-3-1-2---------------+-1-1-1---------+


  e e e e e e e e   e e e e e e q   e s s e e e s s    e e    
+-----------------+---------------+--------------------------+
|-----R-------R---|---5---------R-|-R-5-5-7-5-R-5-5--X/7-5\X-|
|-1-1---1-0-0---0-|---------------|--------------------------|
+-----------------+-3---1-2-3-3---+--------------------------+


  e e q e s s e e   e e e e e e e e   e e e e e e e e   q q e e e e   +h e e  
+-----------------+-----------------+-----------------+-------------+--------+
|-----R-3-3-3-2-3-|-----R-------R---|---5---------R---|-------------|----R---|
|-----------------|-1-1---1-0-0---0-|-----------------|-----2-3-4-5-|------5-|
+-1-1-------------+-----------------+-3---1-2-3-3---3-+-3-3---------+--------+


  +h e e   +h e e   + e  e e e e e e e   +e e q e e e e   +e e q e e e e  
+--------+------5-+--(5)---4-----------+----------------+----------------+
|----R---|----R---|------5---7-5-4-7---|--------4-5-7---|--------4-5-7---|
|------5-|--------|------------------5-|----5-7-------5-|----5-7-------5-|
+--------+--------+--------------------+----------------+----------------+

                                       %
  +e e q e e e e   + e  e e e e e e e   +e e q e e e e   +e e q e e e e  
+----------------+--------------------+----------------+----------------+
|--------4-5-7---|--------R---R-------|----------------|----------------|
|----5-7-------5-|--(5)-5---5---3-----|------------3-1-|----1-1-0-0-0---|
+----------------+----------------4\1-+----1-1-1-1-----+--------------3-+


  +e e q e e e e   +e e q e e e e e   +e e q e e e e   +e e q e e e e  
+----------------+------------------+----------------+----------------+
|----5-----------|------------------|----------------|----------------|
|----------------|------------------|------------3-1-|----1-1-0-0-0---|
+------3-3-3-1/5-+----3-3-3-3-5-3-1-+----1-1-1-1-----+--------------3-+


  +q q e e e e   +e e e e e e e e   +h+q+e e   +h+q+e e   +e Q+Q e  
+--------------+------------------+----------+----------+----------+
|--------------|------------------|----------|----------|----------|
|--------------|----------2-3-4-5-|--------5-|--------5-|----5---5-|
+----3-3-3-1/5-+----3-3-3---------+----------+----------+----------+


                                                  2nd Verse
                                                    to CODA
                                                     He's a radio...
  e e e e e e e e   +e e e q    e e e   +e     e e q e e e   +e e e e Q e  
+---------------5-+----5---5--X/7-5-4-+----(4)H5-4---------+--------------+
|-----------------|------5------------|------------7-5-4---|------5---7---|
|-5-5-5-5-5-5-5---|-------------------|------------------5-|----5---5---5-|
+-----------------+-------------------+--------------------+--------------+


  +e e e e     q q      e e e e Q e   +e e e e     q q   3  q q q q  
+--------------------+--------------+---------------------+---------+
|------5---(7)/9-7\X-|*-----5---7---|------5---(7)/9-7\X-*|-------3-|
|----5---5-----------|*-5-5---5---5-|----5---5-----------*|---1-3---|
+--------------------+--------------+---------------------+-1-------+


  +q q q q   e e e e q q   +e e e e e e e e   q q q q   +e e q q e e  
+----------+-------------+------------------+---------+--------------+
|----------|-----------3-|------------------|-3-----3-|----3---------|
|----1-3---|-----1-1-3---|----1-1-1-3-3-----|---1-3---|------1-3-----|
+--------1-+-1-1---------+--------------1-1-+---------+----------1-1-+


  q e e q q   e e q e e q     e e q+q s s e e   e e e e e e e e  
+-----------+---------------+-----------------+-----------------+
|-3-------3-|-----R---------|-----R---3-3-2-3-|-----R-------R---|
|---1-1-3---|-5-5---5-5-----|-----------------|-1-1---1-0-0---0-|
+-----------+-----------5\X-+-1-1-------------+-----------------+

[ Tab from: http://www.guitartabs.cc/tabs/r/rush/new_world_man_btab_ver_2.html ]
  e s s e e e e q   e e e e    e s s e e   e e q e s s e e   e e e e e e e e  
+-----------------+----------------------+-----------------+-----------------+
|---5-5---------R-|----------------------|-------3-3-3-2-3-|-----R-----------|
|-----------------|----------X/3-3-3/5-3-|-----------------|-----------------|
+-3-----1-2-3-3---+-3-3-1-2--------------+-1-1-1-----------+-6-6---6-5-5-6\5-+


  e e e e e e e e   e s s e e e e e e     e e e e e s s e e  
+-----------------+---------------------+-------------------+
|---5-R-5---------|-R-5-5-5-5-7-5-7-----|-----3-3-3-3-3-2-3-|
|-----------------|-----------------5\X-|-------------------|
+-3-------3-3-1-3-+---------------------+-1-1---------------+


  e e e e e e e e   e e e e e e q   q e e e e e e   +e Q+Q e   +e Q+Q e  
+-----------------+---------------+---------------+----------+----------+
|-----R-------R---|-------------R-|---------------|----------|----------|
|-1-1---1-0-0---0-|---------------|-------2-3-4-5-|----5---5-|----5---5-|
+-----------------+-3-3-1-2-3-3---+-3-5-5---------+----------+----------+


  +h+q+e e   +e e    e e e e e e   +e e q e e e e   +e e q e e e e  
+--------5-+----4--X/7-5-4-------+----------------+----------------+
|----------|---------------7-5---|--------4-5-7---|--------4-5-7---|
|----------|-------------------5-|----5-7-------5-|----5-7-------5-|
+----------+---------------------+----------------+----------------+


                                d.s. al
                                 CODA %      CODA
  +e e q e e e    e   +e e e e e e e e        + e  e e e e e e e  
+-------------------+------------------+    +--------------------+
|--------4-5-7------|------------------|    |--------R---R---R---|
|----5-7--------X/5-|----5-5-5-5-3-----|    |--(5)-5---5---5---5-|
+-------------------+--------------5\1-+    +--------------------+


                                                            Learning to match...
  e e e e e e e e   +e e e q    e e e       e e e e e e e e    +e e e e Q e  
+---------------5-+----5---5--X/7-5-4-+-(4)H5-4-------------+---------------+
|-R-----------4---|------5------------|---------7-5-4-5-7---|*------5---7---|
|---5-0-5-0-5-----|-------------------|-------------------5-|*----5---5---5-|
+-----------------+-------------------+---------------------+---------------+


  +e e e e     q e s s   e e e e Q s s   e e e e     q e e    + e  e q Q e  
+----------------------+---------------+--------------------+--------------+
|------5---(7)/9-7-----|-----5---7-----|-----5---(7)/9-7---*|--------5-7---|
|----5---5---------5-5-|-5-5---5---5-5-|-5-5---5---------5-*|--(5)-5-----5-|
+----------------------+---------------+--------------------+--------------+


  +e e e e     q e e   +e e q Q e   +e e e e     q e e   +e e e e Q e  
+--------------------+------------+--------------------+--------------+
|------5---(7)/9\7---|------5-7---|------5---(7)/9-7---|------5-5-7---|
|----5---5---------5-|----5-----5-|----5---5---------5-|----5-------5-|
+--------------------+------------+--------------------+--------------+


  +e e e e     q e e   +e e q Q e   e q     q e   e   +e e e e    e e e  
+--------------------+------------+---------------5-+----5---5--X/7-5-4-+
|------5-5-(7)/9\7---|------5-7---|---5-(7)/9-7\X---|------5------------|
|----5-------------5-|----5-----5-|-5---------------|-------------------|
+--------------------+------------+-----------------+-------------------+


      e e e e e e e e   +e e e e e e e e   e e e e e e e e  
+-(4)H5-4-------------+------------------+---------------5-+
|---------7-5-4-5-7---|------R---R---R---|-R---R-----------|
|-------------------5-|----5---5---5---5-|---5---5-5-5-5---|
+---------------------+------------------+-----------------+


 Begin Fade
   +e     e e e     e e e     e   e e e e e e e e   +e e e e e e e e  
+-----(5)-5---5-(5)/7-5-4-(4)H5-+-4---------------+------------------+
|*----------5-------------------|---7-5-4---------|------R---R---R---|
|*------------------------------|---------7-5-4-5-|----5---5---5---5-|
+-------------------------------+-----------------+------------------+


           Repeat and Fade
  e e e e e e e e   
+---------------5--+
|-R---------------*|
|---5-5-5-5-5-5---*|
+------------------+


==========================================================================

                Created using the Bass Tab Creator
     __         by Mario D'Alessio (motcid!marble!dalessio)
   +|oo|+
   +|oo|+       Notes:  w = Whole  h = Half  q = Quarter
     ||                 e = 8th    s = 16th  t = 32nd  x = 64th
     ||
     ||                 Capital durations are dotted notes
     ||                   (equal to 1.5 times the duration value)
     ||
     ||             #
     ||         +----+                   +----+
  _  ||  _      |*--*+  = MEASURE        |4:--|  = TIME
  \\_||_//      |*--*+    REPEATS        |4:--|    SIGNATURES
   | [] |       +----+   (#=Num Repeats) +----+
   | || |
  /  []  \      + = TIE         ^  = TRIPLET           > = BEND
  \______/      H = HAMMER ON   \  = SLIDE TO FRET     R = Rest
                P = PULL OFF    \X = SLIDE TO NOWHERE  ~ = Trill

==========================================================================

For corrections or questions on the tabs, contact the author. If no e-mail 
address is included, contact Frank for guitar tabs or Mario for bass tabs,
addresses below.

For remarks, suggestions or additions on the tab 'archive', contact:

Frank (guitar)              or      Mario (bass)
(sheep@gargoyle.hacktic.nl)         (motcid!marble!dalessio@uunet.uu.net)

HAPPY PLAYING!!
Comments