Rush - New World Man Chords & Tabs

 

New World Man Chords & Tabs

Rush Chords & Tabs

Version: 1 Type: Bass Tab 0 ratings
1 star 2 stars 3 stars 4 stars 5 stars
comments

New World Man Bass Tab

   
Rush: New World Man
>From the album Signals (Mercury Records)
Copyright 1982 Core Music Publishing
Music by Lee and Lifeson
Lyrics by Peart

Comments/corrections to Sean Jones 

Transcribed by Erik Habbinga and Sean Jones


                  q q h   e e e e q q         q q q q+  e e e e e e q
||-----4 mm.--||--------|-r------------||-||----------|-----r-----------
||-4:--rest---||*---5-7-|-e---5--/9-7\*||-||*-------3-|-----e-----------
||-4:---------||*-5-----|-s-5---5-----*||-||*---1-3---|---1-s-1-3-3-----
||------------||--------|-t------------||-||--1-------|-----t-------1---


 4x e e e e q q   e e e e q q     e e e e h   e e e e q q  3x     q q
-||-------------|-------------||------------|--------------||-||--------
*||-----5---7---|-----5--/9-7\||*-----5---7-|-----5--/9-7\*||-||*-------
*||-5-5---5---0-|-5-5---5-----||*-5-5---5---|-5-5---5-----*||-||*---1---
-||-------------|-------------||------------|--------------||-||--1-----


q q+  q q q e e  3x q q q e e   e e q e e q   e e Q s s e e   e e e e e e
----|------------||-----------|-----r-------|-----r---------|-----r-------
--3-|-----------*||-------3-3-|-----e-------|-----e-3-3-2-3-|-----e-------
3---|---1-3-----*||---1-3-----|-5-5-s-5-5---|-----s---------|-1-1-s-1-0-0-
----|-------1-1--||-1---------|-----t-----5\|-1-1-t---------|-----t-------


e s s   e s s e e e e q   e e e e e e e e   e e q e s s e e   e e e e e e
r-----|---------------r-|-----------------|-----------------|-----r-------
e-----|---------------e-|-----------------|-------3-3-3-2-3-|-----e-------
s-0-0-|---------------s-|--------/5-4/5-3-|-----------------|-1-1-s-1-0-0-
t-----|-3-3-3-1-2-3-3-t-|-3-3-1-2---------|-1-1-1-----------|-----t-------


e e   e e e e e e Q   e s s e e e s s e e   e e q e s s e e   e e e
r---|-------------r-|-----------r---------|-----r-----------|-----r---
e---|---5---------e-|-5-5-5-7-5-e-5-5/7-5\|-----e-3-3-3-2-3-|-----e---
s-0-|-------------s-|-----------s---------|-----s-----------|-1-1-s---
t---|-3---1-2-3-3-t-|-----------t---------|-3-3-t-----------|-----t---


e e e e s s   e e e e e e q   q q e e e e+    e h+e e e+    e h+e e e+
------r-----|-------------r-|-------------||--------r----||-------r-5-|---
------e-----|---5---------e-|-------------||*-------e---*||-------e---|---
1-0-0-s-0-0-|-------------s-|-----2-3-4-5-||*---5---s-5-*||---5---s---|---
------t-----|-3---1-2-3-3-t-|-3-3---------||--------t----||-------t---|---


e e e e e e e+  e e q e e e e+    e e q e e e e+    e e e e e e e e+
--4-----------|---------------||-----------------||-----r---r-------|---
5---7-5-4-7---|-------4-5-7---||*-------4-5-7---*||-----e---e-------|---
------------5-|---5-7-------5-||*---5-7-------5-*||---5-s-5-s-3-----|---
--------------|---------------||-----------------||-----t---t---4\1-|---


e e q e e e e+  e e q e e e e+  e e q e e e e+  e e q e e e e+  e e q
--------------|---------------|---------------|---------------|---------
--------------|---------------|---5-----------|---------------|---------
----------3-1-|---1-1-0-0-0---|---------------|---------------|---------
--1-1-1-1-----|-------------3-|-----3-3-3-1/5-|---3-3-3-5-3-1-|---1-1---


e e e e+  e e q e e e e+  q q e e e e+  e e e e e e e e+    e h+q e+
--------|---------------|-------------|-----------------||-----------||---
--------|---------------|-------------|-----------------||*---------*||---
----3-1-|---1-1-0-0-0---|-------------|---------2-3-4-5-||*---5---5-*||---
1-1-----|-------------3-|---3-3-3-1/5-|---3-3-3---------||-----------||---


  e Q+Q e   e e e e e e e e+  e e e q e e e+  e e e q e e e+  e e e
|---------|---------------5-|---5---5/7-5-4-|---5-4---------|---------
|---------|-----------------|-----5---------|-------7-5-4---|-----5---
|---5---5-|-5-5-5-5-5-5-5---|---------------|-------------5-|---5-----
|---------|-----------------|---------------|---------------|---------


e Q e   e e e e q q     e e e e Q e+  e e e e q q  3x q q q q+  q q q
------|-------------||--------------|--------------||---------|---------
--7---|-----5--/9-7\||*-----5---7---|-----5--/9-7\*||-------3-|---------
5---5-|-5-5---5-----||*-5-5---5---5-|---5---5-----*||---1-3---|---1-3---
------|-------------||--------------|--------------||-1-------|---------


q   e e e e q q+  e e e e e e e e   q q q q+  e e q q e e   q e e q q
--|-------------|-----------------|---------|-------------|-------------
--|-----------3-|-----------------|-3-----3-|---3---------|-3-------3---
--|-----1-1-3---|---1-1-1-3-3-----|---1-3---|-----1-3-----|---1-1-3-----
1-|-1-1---------|-------------1-1-|---------|---------1-1-|-------------


  e e q e e q   e e Q s s e e   e e e e e e e s s   e s s e e e e q   e
|-----r-------|-----r---------|-----r-------r-----|---------------r-|-----
|-----e-------|-----e-3-3-2-3-|-----e-------e-----|---5-5---------e-|-----
|-5-5-s-5-5---|-----s---------|-1-1-s-1-0-0-s-0-0-|---------------s-|-----
|-----t-----5\|-1-1-t---------|-----t-------t-----|-3-----1-2-3-3-t-|-3---


e e e e s s e e   e e q e s s e e   e e e e e e e e   e e e e e e e e
----------------|-----------------|-----r-----------|-----r-------------
----------------|-------3-3-3-2-3-|-----e-----------|---5-e-5-----------
-----/3-3-3/5-3-|-----------------|-1-1-s-1-0-0-1\0-|-----s-------------
3-1-2-----------|-1-1-1-----------|-----t-----------|-3---t---3-3-1-3---

[ Tab from: http://www.guitartabs.cc/tabs/r/rush/new_world_man_btab.html ]
  e s s e e e e e e   e e q e s s e e   e e e e e e e s s   e e e e e e
|-r-----------------|-----------------|-----r-------r-----|---------------
|-e-5-5-5-5-7-5-7---|-------3-3-3-2-3-|-----e-------e-----|---------------
|-s---------------5\|-----------------|-1-1-s-1-0-0-s-0-0-|---------------
|-t-----------------|-1-1-1-----------|-----t-------t-----|-3-3-1-2-3-3---


q   q e e e e e e+  e Q+Q e+  e Q+Q e+  h+Q e+  e e e e e e e e+  e e
r-|---------------|---------|---------|-----5-|---4/7-5-4-------|-------
e-|---------------|---------|---------|-------|-----------7-5---|-------
s-|-------2-3-4-5-|---5---5-|---5---5-|-------|---------------5-|---5---
t-|-3-5-5---------|---------|---------|-------|-----------------|-------


q e e e e+  e e q e e e e+  e e q e e e e+  e e e e e e e e+  e e q e
----------|---------------|---------------|-----------------|-----------
--4-5-7---|-------4-5-7---|-------4-5-7---|-----------------|-----------
7-------5-|---5-7-------5-|-5-5-7------/5-|---5-5-5-5-3-----|-----------
----------|---------------|---------------|-------------5\1-|---1-1-1---


e e e+  e e q e e e e+  e e q e e e e+  e e q e e e e+  e e q e e e e+
------|---------------|---------------|---------------|-----------------
------|---------------|---5-----------|---------------|-----------------
--3-1-|---1-1-0-0-0---|---------------|---------------|-----------3-1---
1-----|-------------3-|-----3-3-3-1/5-|---3-3-3-5-3-1-|---1-1-1-1-------


  e e q e e e e+  q q e e e e+  e e e e e e e e+  h+Q e+  h+Q e   e Q+
|---------------|-------------|-----------------|-------|-------|-------
|---------------|-------------|-----------------|-------|-------|-------
|---1-1-0-0-0---|-------------|---------2-3-4-5-|-----5-|-----5-|-5-5---
|-------------3-|---3-3-3-1/5-|---3-3-3---------|-------|-------|-------


Q e   e e e e e e e e+  e e e q e e e+  e e e q e e e+  e e e e e e e
----|---------------5-|---5---5/7-5-4-|---5-4---------|-----r---r---r---
----|-----------------|-----5---------|-------7-5-4---|-----e---e---e---
--5-|-5-5-5-5-5-5-5---|---------------|-------------5-|---5-s-5-s-5-s---
----|-----------------|---------------|---------------|-----t---t---t---


e   e e e e e e e e+  e e e q e e e   e e e e e e e e+    e e e e Q e+
--|-r-------------5-|---5---5/7-5-4-|/5-4-------------||----------------
--|-e-----------4---|-----5---------|-----7-5-4-5-7---||*-----5---7-----
5-|-s-5---5---5-----|---------------|---------------5-||*---5---5---5---
--|-t---5---5-------|---------------|-----------------||----------------


  e e e e q q e s s   e e e e Q s s   e e e e q e e+    e e q Q e+  e
|-------------------|---------------|----------------||-----------|-----
|-----5--/9-7-7-----|-----5---7-----|-----5--/9-7---*||-----5-7---|-----
|---5---5-------5-5-|-5-5---5---5-5-|-5-5---5-------*||---5-----5-|-----
|-------------------|---------------|----------------||-----------|-----


e e e q e e+  e e q Q e+  e e e e q e e+  e e e e Q e+  e e e e q e e+
------------|-----------|---------------|-------------|-----------------
--5--/9\7---|-----5-7---|-----5--/9-7---|-----5-5-7---|-----5-5/9\7-----
5---5-----5-|---5-----5-|---5---5-----5-|---5-------5-|---5---------5---
------------|-----------|---------------|-------------|-----------------


  e e q q e e+  e e e q e e e   e e e e e e e e+  e e e e e e e e   e
|-----------5-|---5---5-7-5-4-|/5-4-------------|-----r---r---r---|-r---
|-----5/9-7\--|-----5---------|-----7-5-4-5-7---|-----e---e---e---|-e---
|---5---------|---------------|---------------5-|---5-s-5-s-5-s-5-|-s---
|-------------|---------------|-----------------|-----t---t---t---|-t---


e e e e e e e+    e e e e e e e e   e e e e e e e e+  e e e e e e e e
--r---------5-||----5---5/7-5-4/5-|-4---------------|-----r---r---r-----
--e-----------||*-----5-----------|---7-5-4---------|-----e---e---e-----
5-s-5-5-5-5---||*-----------------|---------7-5-4-5-|---5-s-5-s-5-s-5---
--t-----------||------------------|-----------------|-----t---t---t-----


  e e e e e e e e+  Repeat and Fade

|-r-------------5--||---------------------------------------------------
|-e---------------*||---------------------------------------------------
|-s-5-5-5-5-5-5---*||---------------------------------------------------
|-t----------------||---------------------------------------------------




========================================================================
==                       TABLATURE EXPLANATION                        ==
========================================================================

----------                ----------                ----t---
----5h8--- Hammeron       ----(8)--- Ghost          ----6--- Tap
----------                ---------- Note           --------
----5p8--- Pulloff        ----------                --------

----------                ----------                -----p--
----5/8--- Slide Up       -----x---- Dead           -----7-- Pop
----------                ---------- Note           --s-----
----5\8--- Slide Down     ----------                --5----- Slap

----------                ||------|| Repeat         --------
----5~~~-- Vibrato        ||*----*||                ---5^--- Bend
----------                ||*----*||                --------
----------                ||------||                --------

----------                ----------                --------
-4:------- Time           ----------                --------
-4:------- Signature      ----------                --------
----------                ----------                --------

Rhythm:
  w = whole note            W = dotted whole
  h = half note             H = dotted half
  q = quarter note          Q = dotted quarter
  e = eighth note           E = dotted eighth
  s = sixteenth note        S = dotted sixteenth
  t = 32nd note             T = dotted 32nd
  x = 64th note             X = dotted 64th
  ^ = triplet

========================================================================
==            Created with a demo version of BUCKET O' TAB            ==
==              tablature creation software for Windows               ==
==                  For more info email gse@his.com                   ==
========================================================================



Comments