Rush - Limelight Chords & Tabs

 

Limelight Chords & Tabs

Rush Chords & Tabs

Version: 6 Type: Tab 0 ratings
1 star 2 stars 3 stars 4 stars 5 stars
comments

Limelight Tab

   
Tuning: E,A,D,G,B,E

--------------------------------------------------------|
-----------12/------------------------------------------|
--2b----------------------------------------11~~~~------|
--------------------------------------------------------|
------------------9~~~-11---6---------------------------|
-------------------------------4~~~~~-------------------|

-----------14~~---------14----------------|
-------12------------12----11--14---------|
--11--------------11---------------13~~---|
------------------------------------------|
------------------------------------------|
------------------------------------------|
[ Tab from: http://www.guitartabs.cc/tabs/r/rush/limelight_tab_ver_6.html ]
--11-------14-------11-------14--------------------------|
-----12-11----11-12----12-11----11-12----11--------------|
--------------------------------------13----11-13//////--|
---------------------------------------------------------|
---------------------------------------------------------|
---------------------------------------------------------|

--17b19---14-16~~~-14-16-14-16-18-16-18-19-18-19-21-19-21--|
-----------------------------------------------------------|
-----------------------------------------------------------|
-----------------------------------------------------------|
-----------------------------------------------------------|
-----------------------------------------------------------|

--21b~~~~~~~~~~~~~~~~~~~~~~~~~~~~~~~~~~~~~~~~~~~~~~~~~~~--|
----------------------------------------------------------| >use a feedbacker
----------------------------------------------------------| for this line
----------------------------------------------------------|
----------------------------------------------------------|
----------------------------------------------------------|

Notation used:
B-bend
~-vibrato
//-tremelo bar (there may be 2 or more lines)
/-slide
Comments