Rush - Lessons Chords & Tabs

 

Lessons Chords & Tabs

Rush Chords & Tabs

Version: 1 Type: Bass Tab 0 ratings
1 star 2 stars 3 stars 4 stars 5 stars
comments

Lessons Bass Tab

   
Rush: Lessons
>From the album 2112 (Mercury Records)
Copyright 1976 Core Music Publishing
Music by Lee and Lifeson
Lyrics by Lifeson

Comments/corrections to Sean Jones 

Transcribed by Sean Jones


             E s E E s E E E    E s E E s E E E   E s E E s E E E
||--4 mm.--|------------------|-----------------|------------------|----
||--rest---|-----7------------|-----5-----------|-----7------------|----
||---------|-0-0--/9-9-7-9----|-------5-5-4-5-7-|-0-0--/9-9-7-9----|----
||---------|---------------10\|-3-3-------------|---------------10\|----


E s E q q E   E s E E s E E E    E s E q E E E   E s E E s E E E    E
------------|------------------|---------------|------------------|-----
----5-------|-----7------------|-----5---------|-----7------------|-----
------5-4-5\|-0-0--/9-9-7-9----|-------5-4-5-4\|-0-0--/9-9-7-9----|-----
3-3---------|---------------10\|-3-3-----------|---------------10\|-3---


s E s E s E E E   E s E E s E E E    E s E q q E   E s E E s E E E
----------------|------------------|-------------|------------------|---
--5-------------|-----7------------|-----5-------|-----7------------|---
----5-5-5-4-2/7-|-0-0--/9-9-7-9----|-------5-4-4\|-0-0--/9-9-7-9----|---
3---------------|---------------10\|-3-3---------|---------------10\|---


E s E q E E E    E s E E s E E E    E s E q E E E   E s E E s E E E
--------------||------------------|---------------|---------------------
----5---------||-----7------------|-----5---------|-----7---------------
------5-4-5-4\||-0-0--/9-9-7-9----|-------5-4-5-4\|-0-0--/9-9-7-9-------
3-3-----------||---------------10\|-3-3-----------|---------------10----


   E s E s E E E E   E s E E s E E E    E s E q q E   E s E E s E E
-|-----------------|------------------|-------------|-------------------
-|-----5-----------|-----7------------|-----5-------|-----7-------------
-|-------5-5-4-5-4\|-0-0--/9-9-7-9----|-------5-4-2\|-0-0--/9-9-7-9-----
\|-3-3-------------|---------------10\|-3-3---------|-------------------


E    E s E s E Q   E s E E s E E E    E s E q q E   E s E E s E E E
---|-------------|------------------|-------------|---------------------
---|-----5-------|-----7------------|-----5-------|-----7---------------
---|-------5-5-4/|-0-0--/9-9-7-9----|-------5-4-2\|-0-0--/9-9-7-9-------
10\|-3-3---------|---------------10\|-3-3---------|---------------10----


   E s E q q E     E s E E s E E E    E s E q q E     s s s s E E E q
-|-------------||-------------------|--------------||-----------r-------
-|-----5-------||*-----7------------|-----5-------*||-----------e-------
-|-------5-4-5\||*-0-0--/9-9-7-9----|-------5-4-2/*||-----------s-------
\|-3-3---------||----------------10\|-3-3----------||-0-0-0-0-0-t-5-7---


e   e s s e s s s s s s s s s s   s s s s e e e q e   e s s e e e e q
--|---7-7-7-6-7-9-7-6---7-6-----|-----------r-------|-------------------
--|-------------------9-----9-7-|-----------e-------|---7-7-7-----------
7-|-5---------------------------|-7-7-7-7-7-s-----7-|-5-------7---------
--|-----------------------------|-----------t-5-7---|-----------5-5-3---


  s s s s E E E q E   q q E E E E   s s s s E E E q E   h q q    E E
|-----------r-------|-----7-------|-----------r-------|-------||--------
|-----------e-------|---7---7-5-7-|-----------e-------|-------||--------
|-----------s-----7-|-5-----------|-7-7-7-7-7-s-----7-|-5-----||--------
|-0-0-0-0-0-t-5-7---|-------------|-----------t-5-7---|---5-3\||-3-3----


E E E E E E   E E E E E q E   E E E E E E E E   E E E E E Q   E E E E
r-----r-----|-r---r---r-----|-----r-----r-----|-r---r---r---|-----r-----
e-----e-----|-e---e---e-----|-----e-----e-----|-e---e---e---|-----e-----
s-----s-----|-s---s---s-----|-----s-----s-----|-s---s---s---|-----s-----
t-5-5-t-3-3-|-t-0-t-5-t-3-0-|-3-3-t-5-5-t-3-3-|-t-0-t-5-t-7-|-3-3-t-5---


E E E E   E E E E E q E   E E E E E E E E   E E E E E E q    E s E E
--r-----|-r---r---r-----|-----r-----r-----|-r---r---r---r-||------------
--e-----|-e---e---e-----|-----e-----e-----|-e---e---e---e-||-----7------
--s-----|-s---s---s-----|-----s-----s-----|-s---s---s-5-s-||-0-0--/9----
5-t-3-3-|-t-0-t-5-t-3-0-|-3-3-t-5-5-t-3-3-|-t-0-t-5-t---t-||------------


s E E E    E s E s E E E E   E s E E s E E E    E s E s E s E E E
---------|-----------------|------------------|-------------------||----
---------|-----5-----------|-----7------------|-----5-------------||*---
9-7-9----|-------5-5-4-5-7-|-0-0--/9-9-7-9----|-------5-5-5-4-5-4\||*---
------10\|-3-3-------------|---------------10\|-3-3---------------||----


E s E E s E E E    E s E s E E E E     E s E E s E E E    E s E q E s
-----------------|------------------||------------------|---------------
----7------------|-----5-----------*||-----7------------|-----5---------
0-0--/9-9-7-9----|-------5-5-4-5-7-*||-0-0--/9-9-7-9----|-------5-4-5---
--------------10\|-3-3--------------||---------------10\|-3-3-----------

[ Tab from: http://www.guitartabs.cc/tabs/r/rush/lessons_btab.html ]
E   E s E E s E E E    E s E s E s E E E   E s E E s E E E    E s E q
--|------------------|-------------------|------------------|-----------
--|-----7------------|-----5-------------|-----7------------|-----5-----
7-|-0-0--/9-9-7-9----|-------5-5-5-4-5-4\|-0-0--/9-9-7-9----|-------5---
--|---------------10\|-3-3---------------|---------------10\|-3-3-------


q E   E s E E s E E E    E s E q E E E    s s s s E E E q E   E s s E
----|------------------|---------------||-----------r-------|---7-7-7---
----|-----7------------|-----5---------||-----------e-------|-----------
4-5\|-0-0--/9-9-7-9----|-------5-4-5-7/||-----------s-----7-|-5---------
----|---------------10\|-3-3-----------||-0-0-0-0-0-t-5-7---|-----------


s s s s s s s s s s   s s s s e e e q e   e s s e e e e e e   s s s s
6-7-9-7-6---7-6-----|-----------r-------|-------------------|-----------
----------9-----9-7-|-----------e-------|---7-7-7-5/9-7-5---|-----------
--------------------|-7-7-7-7-7-s-----7-|-5---------------7-|-----------
--------------------|-----------t-5-7---|-------------------|-0-0-0-0---


E E E q q   E s s E E E E E E   s s s s E E E q E   E s s q q q    E
--r-------|---7-7-7-6/9-7-6---|-----------r-------|-------------||------
--e-------|-----------------7-|-----------e-------|---7-7-7-----||------
--s-----7-|-5-----------------|-7-7-7-7-7-s-----7-|-5-----------||-0----
0-t-5-7---|-------------------|-----------t-5-7---|---------5-3-||------


s E E s E E E    E s E q q E   E s E E s E E E    E s E q E E E   E s
---------------|-------------|------------------|---------------|-------
--7------------|-----5-------|-----7------------|-----5---------|-------
0--/9-9-7-9----|-------5-4-2\|-0-0--/9-9-7-9----|------/7-5-7-5-|-0-0---
------------10\|-3-3---------|---------------10\|-3-3-----------|-------


E E s E E E    E s E q E E E   E s E E s E E E    E s E s E E E E   E
-------------|---------------|------------------|-----------------|-----
7------------|-----5---------|-----7------------|-----5-----------|-----
-/9-9-7-9----|-------5-4-4-2-|-0-0--/9-9-7-9----|-------5-5-4-5-4\|-0---
----------10\|-3-3-----------|---------------10\|-3-3-------------|-----


s E E s E E E    E s E E s E E E   E s E E s E E E    E s E s E E E E
---------------|-----------------|------------------|-------------------
--7------------|-----5-----------|-----7------------|-----5-------------
0--/9-9-7-9----|-------5-5-4-5-7-|-0-0--/9-9-7-9----|-------5-5-4-5-4---
------------10\|-3-3-------------|---------------10\|-3-3---------------


   E s E E s E E E    E s E E s E E E   E s E E s E E E   E s E q E E
-|------------------|-----------------|-----------------|---------------
-|-----7------------|-----5-----------|-----7-------7---|-----5---------
\|-0-0--/9-9-7-9----|-------5-5-4-5-4-|-0-0--/9-9-7---9-|-------5-4-5---
-|---------------10\|-3-3-------------|-----------------|-3-3-----------


E     E s E E s E E E    E s E q E E E     E s E E s E E E    E s E E
--||-------------------|----------------||------------------|-----------
--||*-----7------------|-----5---------*||-----7------------|-----5-----
4\||*-0-0--/9-9-7-9----|-------5-4-5-4\*||-0-0--/9-9-7-9----|------/7---
--||----------------10\|-3-3------------||---------------10\|-3-3-------


s E E E   E s E E s E E E    E s E q E E E     E s E E s E E E    E s
--------|------------------|---------------||-------------------|-------
--------|-----7------------|-----5---------||*-----7------------|-------
7-5-5-4-|-0-0--/9-9-7-9----|-------5-4-5-4\||*-0-0--/9-9-7-9----|-------
--------|---------------10\|-3-3-----------||----------------10\|-3-3---


E E s E E E
-------------||---------------------------------------------------------
5-----------*||---------------------------------------------------------
-/7-7-5-5-4-*||---------------------------------------------------------
-------------||---------------------------------------------------------




========================================================================
==                       TABLATURE EXPLANATION                        ==
========================================================================

----------                ----------                ----t---
----5h8--- Hammeron       ----(8)--- Ghost          ----6--- Tap
----------                ---------- Note           --------
----5p8--- Pulloff        ----------                --------

----------                ----------                -----p--
----5/8--- Slide Up       -----x---- Dead           -----7-- Pop
----------                ---------- Note           --s-----
----5\8--- Slide Down     ----------                --5----- Slap

----------                ||------|| Repeat         --------
----5~~~-- Vibrato        ||*----*||                ---5^--- Bend
----------                ||*----*||                --------
----------                ||------||                --------

----------                ----------                --------
-4:------- Time           ----------                --------
-4:------- Signature      ----------                --------
----------                ----------                --------

Rhythm:
  w = whole note            W = dotted whole
  h = half note             H = dotted half
  q = quarter note          Q = dotted quarter
  e = eighth note           E = dotted eighth
  s = sixteenth note        S = dotted sixteenth
  t = 32nd note             T = dotted 32nd
  x = 64th note             X = dotted 64th
  ^ = triplet

========================================================================
==            Created with a demo version of BUCKET O' TAB            ==
==              tablature creation software for Windows               ==
==                  For more info email gse@his.com                   ==
========================================================================



Comments