Rush - In The Mood Chords & Tabs

 

In The Mood Chords & Tabs

Rush Chords & Tabs

Version: 2 Type: Bass Tab 0 ratings
1 star 2 stars 3 stars 4 stars 5 stars
comments

In The Mood Bass Tab

#----------------------------------PLEASE NOTE---------------------------------#
#This file is the author's own work and represents their interpretation of the #
#song. You may only use this file for private study, scholarship, or research. #
#------------------------------------------------------------------------------##
In The Mood by Rush
_____________________________________
Bass Transcription by Andy Schwabecher


A Note to the Bassist
______________________________________________________________________________
This is a really cool and easy to play song. Listen to the music for the 
exact rythms but I think everything is indicated correctly (at least as 
correctly as you can get with tablature). I transcribed everything from
Rush Complete Vol.1 exactly the way I play it, but play it in what ever 
position is easiest for you. The only notation symbol I used was a "_" 
which is just a legato (or "Hammer On" for you guys who haven't learned 
any theory).

	Have fun,
		-Andy
[ Tab from: http://www.guitartabs.cc/tabs/r/rush/in_the_mood_btab_ver_2.html ]
G-------------------------------------------------------------------------------
D-----------------------------------------------0--0--0--0----------------------
A--0--0--0-0--0--0-0--0--2_3--3-3--3--3--3--3---------------0--0--0--0----------
E-----------------------------------------------------------------------0--0--0-
                           
G----------------------|:|------------------------------------------------------
D--2-4-5-5-4-2--2-2-2-2|:|---------0--0---------------0--0-------2-----14-14-16-
A----------------------|:|--2-4-5--------0-0-------0--------0-0-----16----------
E----------------------|:|--------------------3---------------------------------

G----------------------------------------------------------------------|
D-14----14--0--0---------------5--5-4-2---5--5-4-2---5--5-4-2--5--5-4-2|
A----16-----------0-0-------0------------------------------------------|
E----------------------3-----------------------------------------------|
  4 times
G--------------------|----------|
D--7--7--------------|----------|
A--------9-------7--9|--7-------|
E-----------8-9------|----5--5--|
Comments