Rush - Heresy Chords & Tabs

 

Rush Chords & Tabs

Version: 1 Type: Tab 0 ratings
1 star 2 stars 3 stars 4 stars 5 stars
comments

Heresy Tab

Tabbed by: City Machine
Email: vegeta373@hotmail.com

Tuning: Standard

Artist: Rush
Title: Heresy
Album: Roll the Bones


Intro: 
e |----0--------0--0-----0-------------------------------------|
B |---10-------10--7-----9-------------------------------------|
G |----9--------9--9-----9-------------------------------------|
D |----9--------9--9-----9-------------------------------------|
A |------------------------------------------------------------|
E |----------------------------------0--0--0--0--0--0--0--0----|

e |----0-------0----0------7--0--0-----------------------------|
B |---10-------10---7-----10--7--9-----------------------------|
G |----9--------9---9------9--9--9-----------------------------|
D |----9--------9---9------9--9--9-----------------------------|
A |------------------------------------------------------------|
E |----------------------------------0--0--0--0--0--0--0--0----|

e |---16------16--12------14-------------------|
G |----------------------------0-0-0-0-0-0-0-0-|
B |--------------------------------------------|
D |--------------------------------------------|
A |--------------------------------------------|
E |--------------------------------------------| x2

Verse:

e |--0------------------------0-----------0-------------|
B |--0------------------------0-----------0-------------|
G |--9------------------------8-----------6-------------|
D |--9------------------------9-----------7-------------|
A |--7------------------------9-----------7-------------|
E |--0------------------------7-----------5-------------|

e |---------------------------0-----------0------------|
B |---------------------------0-----------0------------|
G |---------------------------8-----------6------------|
D |--9------------------------9-----------7------------|
A |--7------------------------9-----------7------------|
E |--0------------------------7-----------5------------|

e |--------------0------0-----0-------0---------0------|
B |--------------10-----7-----9-------0---------0------|
G |--------------9------9-----9-------8---------6------|
D |--2-----------9------9-----9-------9---------7------|
A |--2--------------------------------9---------7------|
E |--0--------------------------------7---------5------|

Verse 2:

e |------------------------------------|
B |------------------------------------|
G |--9--9----9--9----8--8----6--6------|
D |--9--9----9--9----9--9----7--7------|
A |--7--7----7--7----9--9----7--7------|
E |--0--0----0--0----7--7----5--5------| x 2

e |--------------0------0-----0-------0---------0------|
B |--------------10-----7-----9-------0---------0------|
G |--------------9------9-----9-------8---------6------|
D |--2-----------9------9-----9-------9---------7------|
A |--2--------------------------------9---------7------|
E |--0--------------------------------7---------5------|


Chorus:
[ Tab from: http://www.guitartabs.cc/tabs/r/rush/heresy_tab.html ]
e |------------------0------------------0------------3------0---------|
B |-----3------0-------0---0-3-2-0--------3----3-------3------3-------|
G |-------2------2-------2-------------2---------2-------2------2-----|
D |---2-----2------2---------------0-0-------0-----0--------------0---|
A |-0-----------------------------------------------------------------|
E |-------------------------------------------------------------------|
 
e |-------0----------------0------------------------------------------|
B |-----4----4---0-------4---4---0---------0----------------0---3----|
G |---4--------4---4---4-------4---4-----------4----------------------|
D |--------------------------------------5---5-----5------5--------5--|
A |-2----------------2-----------------5---------5------5-------------|
E |----------------------------------3----------------3---------------|
                                                                 
e |------------------0------------------0------------3------0---------|
B |-----3------0-------0---0-3-2-0--------3----3-------3------3-------|
G |-------2------2-------2-------------2---------2-------2------2-----|
D |---2-----2------2---------------0-0-------0-----0--------------0---|
A |-0-----------------------------------------------------------------|
E |-------------------------------------------------------------------|

e |-------0---------------0-------------------------------|
B |-----4---4---0-------4---4---0-------------------------|
G |---4-------4---4---4-------4---4-----------------------|
D |---------------------------------5-5-5-5-5-5-5-5-5-5---|
A |-2---------------2---------------5-5-5-5-5-5-5-5-5-5---|
E |---------------------------------2/3-3-3-3-3-3-3-3-3---|



Verse 3:
                    X2
e |---------------0-|--------------0-|----------------0--|
B |---------------0-|--------------0-|----------------0--|
G |--9--9----9--9---|-8--8----8--8---|---6--6----6--6----|
D |--9--9----9--9---|-9--9----9--9---|---7--7----7--7----|
A |--7--7----7--7---|-9--9----9--9---|---7--7----7--7----|
E |--0--0----0--0---|-7--7----7--7---|---5--5----5--5----| 

                       X2
e |----------0-----0---0--|--------------0---------------0---|
B |----------10----7---9--|--------------0---------------0---|
G |--9--9----9-----9---9--|-8--8---8--8-----6--6---6--6------|
D |--9--9----9-----9---9--|-9--9---9--9-----7--7---7--7------|
A |--7--7-----------------|-9--9---9--9-----7--7---7--7------|
E |--0--0-----------------|-7--7---7--7-----5--5---5--5------|

e |---------------0------0-----0-------0---------0------|
B |---------------10-----7-----9-------0---------0------|
G |--9------------9------9-----9-------8---------6------|
D |--9------------9------9-----9-------9---------7------|
A |--7---------------------------------9---------7------|
E |--0---------------------------------7---------5------|

Chorus:

e |------------------0------------------0------------3------0---------|
B |-----3------0-------0---0-3-2-0--------3----3-------3------3-------|
G |-------2------2-------2-------------2---------2-------2------2-----|
D |---2-----2------2---------------0-0-------0-----0--------------0---|
A |-0-----------------------------------------------------------------|
E |-------------------------------------------------------------------|

e |-------0----------------0------------------------------------------|
B |-----4----4---0-------4---4---0---------0----------------0---3-----|
G |---4--------4---4---4-------4---4-----------4----------------------|
D |--------------------------------------5---5-----5------5--------5--|
A |-2----------------2-----------------5---------5------5-------------|
E |----------------------------------3----------------3---------------|

e |------------------0------------------0------------3------0---------|
B |-----3------0-------0---0-3-2-0--------3----3-------3------3-------|
G |-------2------2-------2-------------2---------2-------2------2-----|
D |---2-----2------2---------------0-0-------0-----0--------------0---|
A |-0-----------------------------------------------------------------|
E |-------------------------------------------------------------------|

e |-------0---------------0-------------------------------|
B |-----4---4---0-------4---4---0-------------------------|
G |---4-------4---4---4-------4---4-----------------------|
D |---------------------------------5-5-5-5-5-5-5-5-5-5---|
A |-2---------------2---------------5-5-5-5-5-5-5-5-5-5---|
E |---------------------------------2/3-3-3-3-3-3-3-3-3---|

e |---16------16--12------14------------------|
G |-----------------------------0-0-0-0-0-0-0-|
B |-------------------------------------------|
D |-------------------------------------------|
A |-------------------------------------------|
E |-------------------------------------------| x2

Outro:

e|--------0----------5----|
B|------3-------3---------|
G|----2-----------2-------|
D|--0---------------------|
A|------------------------|
E|------------------------|
Comments