Rush - Fly By Night Chords & Tabs

 

Fly By Night Chords & Tabs

Rush Chords & Tabs

Version: 3 Type: Bass Tab 0 ratings
1 star 2 stars 3 stars 4 stars 5 stars
comments

Fly By Night Bass Tab

   
Band: Rush
Album: Fly by Night
Song: Fly by Night

"Fly by Night" by Rush was the Single off
of the album "Fly by Night" after getting
a new drummer, who is by far the best one.
Enjoy and please rate.

|---------------------|
 R = Rest
|---------------------|

     Tip: I would suggest to listen to
          the song and play along to it
          to get the feel and the tempo

TUNING: Standard
        E,A,D,G

Intro
0:00
G|--2R-2R--4R-4R-----------0-----0-----0--------|
D|----------------------0-----0-----0-----------|
A|---------------0-2-3------2-----1------0---0--|
E|-----------------------------------------3----|x5

Chorus
0:35
G|--2-4-2---------6-----2-4-2---------------------|
D|------------------------------------------------|
A|--------2-3-2---------------2-3-2------4-3-2-1--|
E|--------------3-------------------3-------------|

G|--2-4-2-------------------0-----0-----0---------|
D|------------------------0-----0-----0-----------|
A|--------2-3-2-----0-2-3-----2-----1-----0---0---|
E|--------------3---------------------------3-----|

Main Riff
0:50
G|--2R-2R--4R-4R-----------0-----0-----0--------|
D|----------------------0-----0-----0-----------|
A|---------------0-2-3------2-----1------0---0--|
E|-----------------------------------------3----|x3

Chorus
1:10
G|--2-4-2---------6-----2-4-2---------------------|
D|------------------------------------------------|
A|--------2-3-2---------------2-3-2------4-3-2-1--|
E|--------------3-------------------3-------------|

G|--2-4-2-------------------0-----0-----0---------|
D|------------------------0-----0-----0-----------|
A|--------2-3-2-----0-2-3-----2-----1-----0---0---|
E|--------------3---------------------------3-----|
[ Tab from: http://www.guitartabs.cc/tabs/r/rush/fly_by_night_btab_ver_3.html ]
Guitar Solo
1:25
G|--2R-2R--4R-4R-----------0-----0-----0--------|
D|----------------------0-----0-----0-----------|
A|---------------0-2-3------2-----1------0---0--|
E|-----------------------------------------3----|x5

Chorus
1:52
G|--2-4-2---------6-----2-4-2---------------------|
D|------------------------------------------------|
A|--------2-3-2---------------2-3-2------4-3-2-1--|
E|--------------3-------------------3-------------|

G|--2-4-2-------------------0-----0-----0---------|
D|------------------------0-----0-----0-----------|
A|--------2-3-2-----0-2-3-----2-----1-----0---0---|
E|--------------3---------------------------3-----|

|----------------------------------------|
There is no Bass between 2:06 and 2:34
|----------------------------------------|

Chorus
2:34
G|--2-4-2---------6-----2-4-2---------------------|
D|------------------------------------------------|
A|--------2-3-2---------------2-3-2------4-3-2-1--|
E|--------------3-------------------3-------------|

G|--2-4-2-------------------0-----0-----0---------|
D|------------------------0-----0-----0-----------|
A|--------2-3-2-----0-2-3-----2-----1-----0---0---|
E|--------------3---------------------------3-----|

G|-----------0-----0-----0--------|
D|---------0-----0-----0----------|
A|--0-2-3-----2-----1-----0--0----|
E|----------------------------3---|

G|--2-4-2---------6-----2-4-2---------------------|
D|------------------------------------------------|
A|--------2-3-2---------------2-3-2------4-3-2-1--|
E|--------------3-------------------3-------------|

G|--2-4-2-------------------0-----0-----0---------|
D|------------------------0-----0-----0-----------|
A|--------2-3-2-----0-2-3-----2-----1-----0---0---|
E|--------------3---------------------------3-----|

G|-----------0-----0-----0--------|
D|---------0-----0-----0----------|
A|--0-2-3-----2-----1-----0--0----|
E|----------------------------3---| x2

Thats all, Enjoy and please rate.
Comments