Rush - Driven Chords & Tabs

 

Driven Chords & Tabs

Rush Chords & Tabs

Version: 1 Type: Tab 0 ratings
1 star 2 stars 3 stars 4 stars 5 stars
comments

Driven Tab

   
Tablature for Rush's Driven






#----------------------------------PLEASE NOTE---------------------------------#
#This file is the author's own work and represents their interpretation of the #
#song. You may only use this file for private study, scholarship, or research. #
#------------------------------------------------------------------------------#

DRIVENAs recorded by Rush(From the 1996 Album TEST FOR ECHO)Transcribed by Alex LifesonWords by Neil Peart
Music by RushArranged by Lee, Lifeson, PeartGtr I (E A D G B E) - 'Guitar 1 (Overdriven'
Gtr II (E A D G B E) - 'Guitar 1 (Dist.)    '
Gtr III (E A D G B E) - 'Acoustic Guitar     '
Gtr IV (E A D G B E) - 'Guitar 3'

  Q=100
 3/4      4/4                           7/8
  Gtrs I, II
  W        S S S S S S S S S S S S E E   S S S S S S E E E E
|--------|-----------------------------|---------------------|
|--------|-----------------------------|---------------------|
|--------|-----------------------------|---------------------|
|--------|-----------------------------|---------------------|
|--------|-3-0-0-5-----3-0-0-5-----3-3-|-3-0-0-5-----6-6-6-5-|
|--------|---------5-5---------5-5-----|---------5-5---------|


 4/4                           7/8
  S S S S S S S S S S S S E E   S S S S S S E E E E
|-----------------------------|---------------------|
|-----------------------------|---------------------|
|-----------------------------|---------------------|
|-----------------------------|---------------------|
|-3-0-0-5-----3-0-0-5-----3-3-|-3-0-0-5-----6-6-6-5-|
|---------5-5---------5-5-----|---------5-5---------|


 4/4                           3/4
  S S S S S S S S S S S S E E   S S S S S S E E E
|-----------------------------|-------------------|
|-----------------------------|-------------------|
|-----------------------------|-------------------|
|-----------------------------|-------------------|
|-3-0-0-5-----3-0-0-5-----3-3-|-3-0-0-5-----6-6-6-|
|---------5-5---------5-5-----|---------5-5-------|


 4/4
  S S S S S S S S S S S S E E
|------------------------------|
|------------------------------|
|------------------------------|
|------------------------------|
|-------5-----3-0-0-5-----3-3--|
|-8-5-5---5-5---------5-5------|


 7/8                   4/4                           3/4
  S S S S S S E E E E   S S S S S S S S S S S S E E   S S S S S S E E E
|---------------------|-----------------------------|--------------------|
|---------------------|-----------------------------|--------------------|
|---------------------|-----------------------------|--------------------|
|---------------------|-----------------------------|--------------------|
|-3-0-0-5-----6-6-6-5-|-3-0-0-5-----3-0-0-5-----3-3-|-3-0-0-5-----6-6-6--|
|---------5-5---------|---------5-5---------5-5-----|---------5-5--------|


 4/4                           7/8
  S S S S S S S S S S S S E E   S S S S S S E E E E
|-----------------------------|---------------------|
|-----------------------------|---------------------|
|-----------------------------|---------------------|
|-----------------------------|---------------------|
|-------5-----3-0-0-5-----3-3-|-3-0-0-5-----6-6-6-5-|
|-8-5-5---5-5---------5-5-----|---------5-5---------|


 6/8
  Gtr III
  E S S S S E S E S   E S E S E E E
|-1---1---1-3---3-3-|-0---0-0-0---0-|
|-1-1-1-1-1-3-3-3-3-|-1-1-1-1-1---1-|
|-2-2-2-2-2-0-0-0-0-|-2-2-2-2-2-0-2-|
|-3---3---3-0-0-0-0-|-2-2-2-2-2-0-2-|
|-3-----------------|-0-------0-0---|
|-1---------3-------|---------------|


  Gtrs I, II
  W                   Q.         Q     E
|-------------------|----------------------|
|-------------------|----------------------|
|-------------------|-7----------9---------|
|-------------------|-7----------9---------|
|-------------------|-5----------7-----7---|
|-------------------|-5----------7-----7---|
|
| Gtr III
| E S S S S E S E S   E  S S S S E S E   S
|-1---1---1-3---3-3-|-0----0---0-----------|
|-1-1-1-1-1-3-3-3-3-|-3--3-3-3-3-5-5-5-----|
|-2-2-2-2-2-0-0-0-0-|-2--2-2-2-2-4-4-4-----|
|-3---3---3-0-0-0-0-|-0----0---0-2-2-2-----|
|-3-----------------|------------2-2-2-----|
|-1---------3-------|------------0---------|


  E. E S E E E   E. E S E E E   E. E S E E E
|--------------|--------------|--------------|
|--------------|--------------|--------------|
|--------------|-2--2-2-2---2-|--------------|
|-3--3-3-5-3-5-|-2--2-2-2-5-2-|-3--3-3-5-3-5-|
|-3--3-3-5-3-5-|-0--0-0-0-5-0-|-3--3-3-5-3-5-|
|-1--1-1-3-1-3-|----------3---|-1--1-1-3-1-3-|
|
| W              W              W
|--------------|--------------|--------------|
|--------------|--------------|--------------|
|--------------|--------------|--------------|
|--------------|--------------|--------------|
|--------------|--------------|--------------|
|--------------|--------------|--------------|


  Q.   Q  E   E. E S E E E   E. E S E E E
|-----------|--------------|--------------|
|-3----5----|--------------|--------------|
|-2----4----|--------------|-2--2-2-2---2-|
|-0----2--2-|-3--3-3-5-3-5-|-2--2-2-2-5-2-|
|-0----2--2-|-3--3-3-5-3-5-|-0--0-0-0-5-0-|
|-----------|-1--1-1-3-1-3-|----------3---|


  E. E S E E E   Q.   Q  E   Q.   Q.
|--------------|-----------|-----------|
|--------------|-3----5----|-----------|
|--------------|-2----4----|-----------|
|-3--3-3-5-3-5-|-0----2--2-|-3----5----|
|-3--3-3-5-3-5-|-0----2--2-|-3----5----|
|-1--1-1-3-1-3-|-----------|-1----3----|


              4/4                           7/8
  E. E. Q.     S S S S S S S S S S S S E E   S S S S S S E E E E
|------------|-----------------------------|---------------------|
|------------|-----------------------------|---------------------|
|-2--2--2----|-----------------------------|---------------------|
|-2--2--2----|-----------------------------|---------------------|
|-0--0--0----|-3-0-0-5-----3-0-0-5-----3-3-|-3-0-0-5-----6-6-6-5-|
|------------|---------5-5---------5-5-----|---------5-5---------|


 4/4                           3/4
  S S S S S S S S S S S S E E   S S S S S S E E E
|-----------------------------|-------------------|
|-----------------------------|-------------------|
|-----------------------------|-------------------|
|-----------------------------|-------------------|
|-3-0-0-5-----3-0-0-5-----3-3-|-3-0-0-5-----6-6-6-|
|---------5-5---------5-5-----|---------5-5-------|


 4/4
  S S S S S S S S S S S S E E
|------------------------------|
|------------------------------|
|------------------------------|
|------------------------------|
|-------5-----3-0-0-5-----3-3--|
|-8-5-5---5-5---------5-5------|


 7/8                   4/4                           3/4
  S S S S S S E E E E   S S S S S S S S S S S S E E   S S S S S S E E E
|---------------------|-----------------------------|--------------------|
|---------------------|-----------------------------|--------------------|
|---------------------|-----------------------------|--------------------|
|---------------------|-----------------------------|--------------------|
|-3-0-0-5-----6-6-6-5-|-3-0-0-5-----3-0-0-5-----3-3-|-3-0-0-5-----6-6-6--|
|---------5-5---------|---------5-5---------5-5-----|---------5-5--------|


 4/4                           7/8
  S S S S S S S S S S S S E E   S S S S S S E E E E
|-----------------------------|---------------------|
|-----------------------------|---------------------|
|-----------------------------|---------------------|
|-----------------------------|---------------------|
|-------5-----3-0-0-5-----3-3-|-3-0-0-5-----6-6-6-5-|
|-8-5-5---5-5---------5-5-----|---------5-5---------|


 6/8
  Gtr III
  E S S S S E S E S   E S E S E E E
|-1---1---1-3---3-3-|-0---0-0-0---0-|
|-1-1-1-1-1-3-3-3-3-|-1-1-1-1-1---1-|
|-2-2-2-2-2-0-0-0-0-|-2-2-2-2-2-0-2-|
|-3---3---3-0-0-0-0-|-2-2-2-2-2-0-2-|
|-3-----------------|-0-------0-0---|
|-1---------3-------|---------------|


  Gtrs I, II
  W                   Q.         Q     E
|-------------------|----------------------|
|-------------------|----------------------|
|-------------------|-7----------9---------|
|-------------------|-7----------9---------|
|-------------------|-5----------7-----7---|
|-------------------|-5----------7-----7---|
|
| Gtr III
| E S S S S E S E S   E  S S S S E S E   S
|-1---1---1-3---3-3-|-0----0---0-----------|
|-1-1-1-1-1-3-3-3-3-|-3--3-3-3-3-5-5-5-----|
|-2-2-2-2-2-0-0-0-0-|-2--2-2-2-2-4-4-4-----|
|-3---3---3-0-0-0-0-|-0----0---0-2-2-2-----|
|-3-----------------|------------2-2-2-----|
|-1---------3-------|------------0---------|


  E. E S E E E   E. E S E E E   E. E S E E E
|--------------|--------------|--------------|
|--------------|--------------|--------------|
|--------------|-2--2-2-2---2-|--------------|
|-3--3-3-5-3-5-|-2--2-2-2-5-2-|-3--3-3-5-3-5-|
|-3--3-3-5-3-5-|-0--0-0-0-5-0-|-3--3-3-5-3-5-|
|-1--1-1-3-1-3-|----------3---|-1--1-1-3-1-3-|
|
| W              W              W
|--------------|--------------|--------------|
|--------------|--------------|--------------|
|--------------|--------------|--------------|
|--------------|--------------|--------------|
|--------------|--------------|--------------|
|--------------|--------------|--------------|


  Q.   Q  E   E. E S E E E   E. E S E E E
|-----------|--------------|--------------|
|-3----5----|--------------|--------------|
|-2----4----|--------------|-2--2-2-2---2-|
|-0----2--2-|-3--3-3-5-3-5-|-2--2-2-2-5-2-|
|-0----2--2-|-3--3-3-5-3-5-|-0--0-0-0-5-0-|
|-----------|-1--1-1-3-1-3-|----------3---|


  E. E S E E E   Q.   Q.     Q.   Q.
|--------------|-----------|-----------|
|--------------|-----------|-----------|
|--------------|-----------|-----------|
|-3--3-3-5-3-5-|------2----|-3----5----|
|-3--3-3-5-3-5-|-5----2----|-3----5----|
|-1--1-1-3-1-3-|-5----0----|-1----3----|


                    4/4       7/8        4/4
  S S S S S S Q.     W         W          W
|------------------|---------|----------|------|
|------------------|---------|----------|------|
|-2-2-2-2-2-2-2----|---------|----------|------|
|-2-2-2-2-2-2-2----|---------|----------|------|
|-0-0-0-0-0-0-0----|---------|----------|------|
|------------------|---------|----------|------|


 3/4      4/4
  W        E E +E  E +E  E +E  E
|--------|-----------------------|
|--------|---------1-(1)---------|
|--------|-----------------------|
|--------|---------------0-(0)-0-|
|--------|---3-(3)---------------|
|--------|-----------------------|


 7/8              4/4          3/4
  +H.      +S  S   +W           +E. S +E  E E E
|----------------|------------|-----------------|
|----------------|------------|-----------------|
|--------------2-|-(2)--------|-(2)-2-(2)-2-0---|
|-(0)------(0)---|------------|---------------1-|
|----------------|------------|-----------------|
|----------------|------------|-----------------|


 4/4                         3/4                6/8
  E E +E  S S +E  E +S  E S   +Q    H             Q.    Q.
|---------------------------|------------------|-------------|
|-1-------------------------|------------------|-------------|
|---------------------------|------------------|-------------|
|---1-(1)-------------------|------------------|-------------|
|---------3-0-(0)-0-(0)-5-3-|-(3)---3----------|--5----------|
|---------------------------|------------------|--------3----|
|
| Gtr IV
| E E +Q      +H               Q    E  E  E  E    Q.    Q.
|---8-(8)-----(8)-----------|-10---10-10-10-10-|-17----17----|
|---------------------------|------------------|-------------|
|---------------------------|------------------|-------------|
|---------------------------|------------------|-------------|
|---------------------------|------------------|-------------|
|---------------------------|------------------|-------------|

[ Tab from: http://www.guitartabs.cc/tabs/r/rush/driven_tab.html ]
   Q.    S  E.     E    Q.        Q.
|--------------------|-----------------------------|
|--------------------|-----------------------------|
|--------------------|-----------------------------|
|--------------------|--0--------------------------|
|--0-----3-----------|-----------------------------|
|-----------1------0-|------------3----------------|
|
|  Q..      S   E  E    E.  S  E  E   S  S  S  S
|-17-------17--17-17-|-20--20-20-20--20-20-20-20---|
|--------------------|-----------------------------|
|--------------------|-----------------------------|
|--------------------|-----------------------------|
|--------------------|-----------------------------|
|--------------------|-----------------------------|


   S  S S  S  S S  S S  S  S  E   Q.   Q.     Q.   S E. E   Q.   Q.
|-------------------------------|-----------|-------------|-----------|
|-------------------------------|-----------|-------------|-----------|
|--5--5-5--5--5-5--5-5--5--5--5-|-----------|-------------|-----------|
|--5--5-5--5--5-5--5-5--5--5--5-|-----------|-------------|-0---------|
|--3--3-3--3--3-3--3-3--3--3--3-|-5---------|-0----3------|-----------|
|-------------------------------|------3----|--------1--0-|------3----|
|
|  E.      S  E    E    S  E.     W           W             W
|-20------20-20---20---20-20----|-----------|-------------|-----------|
|-------------------------------|-----------|-------------|-----------|
|-------------------------------|-----------|-------------|-----------|
|-------------------------------|-----------|-------------|-----------|
|-------------------------------|-----------|-------------|-----------|
|-------------------------------|-----------|-------------|-----------|


  S S S S S S S S S S E   Q.   Q.     Q.   S E. E   Q.   Q.
|-----------------------|-----------|-------------|-----------|
|-----------------------|-----------|-------------|-----------|
|-5-5-5-5-5-5-5-5-5-5-5-|-----------|-------------|-----------|
|-5-5-5-5-5-5-5-5-5-5-5-|-----------|-------------|-0---------|
|-3-3-3-3-3-3-3-3-3-3-3-|-5---------|-0----3------|-----------|
|-----------------------|------3----|--------1--0-|------3----|


  S S S S S S S S S S E   Q.   Q.     Q.   S E. E   Q.   Q.
|-----------------------|-----------|-------------|-----------|
|-----------------------|-----------|-------------|-----------|
|-5-5-5-5-5-5-5-5-5-5-5-|-----------|-------------|-----------|
|-5-5-5-5-5-5-5-5-5-5-5-|-----------|-------------|-0---------|
|-3-3-3-3-3-3-3-3-3-3-3-|-5---------|-0----3------|-----------|
|-----------------------|------3----|--------1--0-|------3----|


  S S S S S S S S S S E   Q.   Q.     Q.   S E. E   Q.   Q.     E. E. E E E
|-----------------------|-----------|-------------|-----------|--------------|
|-----------------------|-----------|-------------|-----------|-4--4---------|
|-5-5-5-5-5-5-5-5-5-5-5-|-----------|-------------|-----------|-3--3--3-3-3--|
|-5-5-5-5-5-5-5-5-5-5-5-|-3---------|------1------|-3---------|-1--1--0-1-0--|
|-3-3-3-3-3-3-3-3-3-3-3-|------1----|-3-----------|------1----|--------------|
|-----------------------|-----------|--------4--3-|-----------|--------------|


  Q.   Q.     Q.   S E. E   Q.   Q.
|-----------|-------------|-----------|
|-----------|-------------|-----------|
|-----------|-------------|-----------|
|-3---------|------1------|-3---------|
|------1----|-3-----------|------1----|
|-----------|--------4--3-|-----------|


  E. E. E E S S   S E. E E E E   E S E S S E. E
|---------------|-8-8--8-------|------------------|
|-4--4----------|-8-8--8-------|------------------|
|-3--3--3-3-3---|-7-7--7---5---|------------------|
|-1--1--0-1-0---|-7-7--7---5---|-7-7-7-7----------|
|---------------|-5-5--5-7---7-|-7-7-7-7-3--------|
|---------------|--------------|-5-5-5-5---1--0---|


  E S E  S  E  S  S  E   S S S E. S S S S E   S E. E E E E   E S E S S E. E
|-8-8-8----------------|--------------------|-8-8--8-------|----------------|
|-8-8-8-17-17-17-17-17-|--------------------|-8-8--8-------|----------------|
|-7-7-7-17-17-17-17-17-|-5-5-5-5------------|-7-7--7---5---|----------------|
|-7-7-7-17-17-17-17-17-|-5-5-5-5----5-5-5-5-|-7-7--7---5---|-7-7-7-7--------|
|-5-5-5-17-17-17-17-17-|-3-3-3-3--3---------|-5-5--5-7---7-|-7-7-7-7-3------|
|----------------------|--------------8-8-8-|--------------|-5-5-5-5---1--0-|


  E S E  S  E  S  S  E   E S E. E E E   Q.   Q.     Q  S S E E E   Q.   Q.
|-8-8-8----------------|--------------|-----------|--------------|-----------|
|-8-8-8-17-17-17-17-17-|--------------|-----------|--------------|-----------|
|-7-7-7-17-17-17-17-17-|-5-5-5--------|-----------|-2--2-2-2---2-|-----------|
|-7-7-7-17-17-17-17-17-|-5-5-5--5-5-5-|-3----5----|-2--2-2-2-5-2-|-3----5----|
|-5-5-5-17-17-17-17-17-|-3-3-3--2-2-2-|-3----5----|-0--0-0-0-5-0-|-3----5----|
|----------------------|--------------|-1----3----|----------3---|-1----3----|


                                          4/4
  Q.   Q.     Q.   Q.     E S S S S Q.     S S S S S S S S S S S S E E
|-----------|------3----|-5-5-5-5-5-5----|------------------------------|
|-3----5----|-6----3----|-5-5-5-5-5-5----|------------------------------|
|-2----4----|-5----0----|-2-2-2-2-2-2----|------------------------------|
|-0----2----|-3----0----|----------------|------------------------------|
|-0----2----|-3---------|----------------|-3-0-0-5-----3-0-0-5-----3-3--|
|-----------|-----------|----------------|---------5-5---------5-5------|


 7/8                   4/4                           3/4
  S S S S S S E E E E   S S S S S S S S S S S S E E   S S S S S S E E E
|---------------------|-----------------------------|--------------------|
|---------------------|-----------------------------|--------------------|
|---------------------|-----------------------------|--------------------|
|---------------------|-----------------------------|--------------------|
|-3-0-0-5-----6-6-6-5-|-3-0-0-5-----3-0-0-5-----3-3-|-3-0-0-5-----6-6-6--|
|---------5-5---------|---------5-5---------5-5-----|---------5-5--------|


 4/4                           7/8
  S S S S S S S S S S S S E E   S S S S S S E E E E
|-----------------------------|---------------------|
|-----------------------------|---------------------|
|-----------------------------|---------------------|
|-----------------------------|---------------------|
|-------5-----3-0-0-5-----3-3-|-3-0-0-5-----6-6-6-5-|
|-8-5-5---5-5---------5-5-----|---------5-5---------|


 4/4                           3/4
  S S S S S S S S S S S S E E   S S S S S S E E E
|-----------------------------|-------------------|
|-----------------------------|-------------------|
|-----------------------------|-------------------|
|-----------------------------|-------------------|
|-3-0-0-5-----3-0-0-5-----3-3-|-3-0-0-5-----6-6-6-|
|---------5-5---------5-5-----|---------5-5-------|


 4/4
  S S S S S S S S S S S S E E
|------------------------------|
|------------------------------|
|------------------------------|
|------------------------------|
|-------5-----3-0-0-5-----3-3--|
|-8-5-5---5-5---------5-5------|


 7/8                   6/8
  S S S S S S E E E E   E S E S E S E S   Q  S S E E E   E S E S E S E S
|---------------------|-----------------|--------------|------------------|
|---------------------|-----------------|--------------|------------------|
|---------------------|-2-2-2-2---------|-2--2-2-2---2-|-2-2-2-2----------|
|---------------------|-3-3-3-3-5-5-5-5-|-2--2-2-2-5-2-|-3-3-3-3-5-5-5-5--|
|-3-0-0-5-----6-6-6-5-|-3-3-3-3-5-5-5-5-|-0--0-0-0-5-0-|-3-3-3-3-5-5-5-5--|
|---------5-5---------|-1-1-1-1-3-3-3-3-|----------3---|-1-1-1-1-3-3-3-3--|


  Q.   Q  E   E. E S E E E   E. E S E E E
|-----------|--------------|--------------|
|-3----5----|--------------|--------------|
|-2----4----|--------------|-2--2-2-2---2-|
|-0----2--2-|-3--3-3-5-3-5-|-2--2-2-2-5-2-|
|-0----2--2-|-3--3-3-5-3-5-|-0--0-0-0-5-0-|
|-----------|-1--1-1-3-1-3-|----------3---|


  E. E S E E E   Q.   Q  E   E. E S E E E
|--------------|-----------|--------------|
|--------------|-3----5----|--------------|
|--------------|-2----4----|--------------|
|-3--3-3-5-3-5-|-0----2--2-|-3--3-3-5-3-5-|
|-3--3-3-5-3-5-|-0----2--2-|-3--3-3-5-3-5-|
|-1--1-1-3-1-3-|-----------|-1--1-1-3-1-3-|


  E. E S E E E   E. E S E E E   E S S E E S S E
|--------------|--------------|-----------------|
|--------------|--------------|-3-3-3-3-5-5-5-5-|
|-2--2-2-2---2-|--------------|-2-2-2-2-4-4-4-4-|
|-2--2-2-2-5-2-|-3--3-3-5-3-5-|-0-0-0-0-2-2-2-2-|
|-0--0-0-0-5-0-|-3--3-3-5-3-5-|-0-0-0-0-2-2-2-2-|
|----------3---|-1--1-1-3-1-3-|-----------------|


  E S S E E S S E   E S S S S E E E
|---------3-3-3-3-|-5-5-5-5-5-5-3-5--|
|-6-6-6-6-3-3-3-3-|-5-5-5-5-5-5-3-5--|
|-5-5-5-5-0-0-0-0-|-2-2-2-2-2-2-2-2--|
|-3-3-3-3-0-0-0-0-|------------------|
|-3-3-3-3---------|------------------|
|-----------------|------------------|


  E. E S E E E   E S S E E S S E   E S S E E S S E   S S S S S S Q.
|--------------|-----------------|---------3-3-3-3-|-5-5-5-5-5-5-5-----|
|--------------|-3-3-3-3-5-5-5-5-|-6-6-6-6-3-3-3-3-|-5-5-5-5-5-5-5-----|
|--------------|-2-2-2-2-4-4-4-4-|-5-5-5-5-0-0-0-0-|-2-2-2-2-2-2-2-----|
|-3--3-3-5-3-5-|-0-0-0-0-2-2-2-2-|-3-3-3-3-0-0-0-0-|-------------------|
|-3--3-3-5-3-5-|-0-0-0-0-2-2-2-2-|-3-3-3-3---------|-------------------|
|-1--1-1-3-1-3-|-----------------|-----------------|-------------------|


 4/4                           7/8
  S S S S S S S S S S S S E E   S S S S S S E E E E
|-----------------------------|---------------------|
|-----------------------------|---------------------|
|-----------------------------|---------------------|
|-----------------------------|---------------------|
|-3-0-0-5-----3-0-0-5-----3-3-|-3-0-0-5-----6-6-6-5-|
|---------5-5---------5-5-----|---------5-5---------|


 4/4                           3/4
  S S S S S S S S S S S S E E   S S S S S S E E E
|-----------------------------|-------------------|
|-----------------------------|-------------------|
|-----------------------------|-------------------|
|-----------------------------|-------------------|
|-3-0-0-5-----3-0-0-5-----3-3-|-3-0-0-5-----6-6-6-|
|---------5-5---------5-5-----|---------5-5-------|


 4/4
  S S S S S S S S S S S S E E
|------------------------------|
|------------------------------|
|------------------------------|
|------------------------------|
|-------5-----3-0-0-5-----3-3--|
|-8-5-5---5-5---------5-5------|


 7/8                   4/4                           3/4
  S S S S S S E E E E   S S S S S S S S S S S S E E   S S S S S S E E E
|---------------------|-----------------------------|--------------------|
|---------------------|-----------------------------|--------------------|
|---------------------|-----------------------------|--------------------|
|---------------------|-----------------------------|--------------------|
|-3-0-0-5-----6-6-6-5-|-3-0-0-5-----3-0-0-5-----3-3-|-3-0-0-5-----6-6-6--|
|---------5-5---------|---------5-5---------5-5-----|---------5-5--------|


 4/4                           3/4                 4/4
  S S S S S S S S S S S S E E   S S S S S S E E E   E E Q  H
|-----------------------------|-------------------|-------------*|
|-----------------------------|-------------------|-------------*|
|-----------------------------|-------------------|-------------*|
|-----------------------------|-------------------|-------------*|
|-------5-----3-0-0-5-----3-3-|-3-0-0-5-----6-6-6-|-------------*|
|-8-5-5---5-5---------5-5-----|---------5-5-------|-5-----------*|




Duration Legend
---------------
W - whole; H - half; Q - quarter; E - 8th; S - 16th; T - 32nd; X - 64th; a - acciaccatura
+ - note tied to previous; . - note dotted; .. - note double dotted
Uncapitalized letters represent notes that are staccato (1/2 duration)
Irregular groupings are notated above the duration line
Duration letters will always appear directly above the note/fret number it represents the
duration for.  Duration letters with no fret number below them represent rests.  Multi-
bar rests are notated in the form Wxn, where n is the number of bars to rest for.  Low
melody durations appear below the staff

Tablature Legend
----------------
 h   - hammer-on
 p   - pull-off
 b   - bend
 pb  - pre-bend
 r   - bend release (if no number after the r, then release immediately)
 /\  - slide into or out of (from/to "nowhere")
 s   - legato slide
 S   - shift slide
<n> - natural harmonic
[n]  - artificial harmonic
n(n) - tapped harmonic
 ~   - vibrato
 tr  - trill
 T   - tap
 TP  - trem. picking
 PM  - palm muting
\n/  - tremolo bar dip; n = amount to dip
 \n  - tremolo bar down
 n/  - tremolo bar up
/n\  - tremolo bar inverted dip
 =   - hold bend; also acts as connecting device for hammers/pulls
 <> - volume swell (louder/softer)
 x   - on rhythm slash represents muted slash
 o   - on rhythm slash represents single note slash

Misc Legend
-----------
 |  - bar
||  - double bar
||o - repeat start
o|| - repeat end
*|  - double bar (ending)
 :  - bar (freetime)
 $  - Segno
 &  - Coda
Tempo markers - <E/E./Q/Q./H/H.> = BPM(8/16=s8/s16), where s8 = swing 8ths, s16 = swing 16ths

** Generated using Power Tab Editor by Brad Larsen:   The Official Power Tab Web Site


Comments