Rush - Driven Chords & Tabs

 

Driven Chords & Tabs

Rush Chords & Tabs

Version: 1 Type: Bass Tab 0 ratings
1 star 2 stars 3 stars 4 stars 5 stars
comments

Driven Bass Tab

   
Tablature for Rush's Driven






#----------------------------------PLEASE NOTE---------------------------------#
#This file is the author's own work and represents their interpretation of the #
#song. You may only use this file for private study, scholarship, or research. #
#------------------------------------------------------------------------------#

DRIVEN (Bassline)As recorded by Rush(From the 1996 Album TEST FOR ECHO)Transcribed by Geddy LeeWords by Neil Peart
Music by RushArranged by Lee, Lifeson, PeartGtr I (D A D G) - 'Bass 1              '
Gtr II (D A D G) - 'Bass 2              '
Gtr III (E A D G) - 'Bass 3              '

  Q=100
 3/4      4/4        7/8        4/4
  Gtr I
  W        W          W           E.  S E  S S S  S E  S S  S S
|--------|----------|----------|--9--11----9-----11----9----9---|
|--------|----------|----------|-10--12---10-----12---10---10---|
|--------|----------|----------|--0-----------------------------|
|--------|----------|----------|--------------------------------|


 7/8
   E.  S E  S S  S S  S S  S S
|--9--11---12---12---12---11---|
|-10--12---13---13---13---12---|
|--0---------------------------|
|------------------------------|


 4/4                              3/4
   E.  S E  S S S  S E  S S  S S    E.  S E  S S  S S  S S
|--9--11----9-----11----9----9---|--9--11---12---12---12---|
|-10--12---10-----12---10---10---|-10--12---13---13---13---|
|--0-----------------------------|--0----------------------|
|--------------------------------|-------------------------|


 4/4
   E.  S E  S S S  S E  S S  S S
|--9--11----9-----11----9----9---|
|-10--12---10-----12---10---10---|
|--0-----------------------------|
|--------------------------------|


 7/8                            4/4
   E.  S E  S S  S S  S S  S S    E.  S E  S S S  S E  S S  S S
|--9--11---12---12---12---11---|--9--11----9-----11----9----9----|
|-10--12---13---13---13---12---|-10--12---10-----12---10---10----|
|--0---------------------------|--0------------------------------|
|------------------------------|---------------------------------|


 3/4                       4/4
   E.  S E  S S  S S  S S    E.  S E  S S S  S E  S S  S S
|--9--11---12---12---12---|--9--11----9-----11----9----9---|
|-10--12---13---13---13---|-10--12---10-----12---10---10---|
|--0----------------------|--0-----------------------------|
|-------------------------|--------------------------------|


 7/8
   E.  S E  S S  S S  S S  S S
|--9--11---12---12---12---11---|
|-10--12---13---13---13---12---|
|--0---------------------------|
|------------------------------|


 6/8
  W        W          W          Q.   Q.     E. S S S E E E
|--------|----------|----------|-----------|-----------------|
|--------|----------|----------|-----------|-----------------|
|--------|----------|----------|-----------|-----------------|
|--------|----------|----------|-0----2----|-3--3---3-5-3-5--|


  E S S S S E E E   E. S S S E E E   Q.   Q.
|-----------------|----------------|-----------|
|-----------------|----------------|-----------|
|-----------------|----------------|-----------|
|-7---7---7-7-5-7-|-3--3---3-5-3-2-|-0----2----|


  E. S S S E E E   E S S S S E E E
|----------------|------------------|
|----------------|------------------|
|----------------|------------------|
|-3--3---3-5-3-5-|-7---7---7-7-5-7--|


                                                          4/4
  E. S S S E E E   Q.   Q.     Q.   Q.     S E S E E E E   W
|----------------|-----------|-----------|---------------|------|
|----------------|-----------|-----------|---------------|------|
|----------------|-----------|-----------|---------------|------|
|-3--3---3-5-3-2-|-0----2----|-3----5----|-7---7---7-----|------|


 7/8       4/4                              3/4
  W          E.  S E  S S S  S E  S S  S S    E.  S E  S S  S S  S S
|---------|--9--11----9-----11----9----9---|--9--11---12---12---12---|
|---------|-10--12---10-----12---10---10---|-10--12---13---13---13---|
|---------|--------------------------------|--0----------------------|
|---------|--7-----------------------------|-------------------------|


 4/4
   E.  S E  S S S  S E  S S  S S
|--9--11----9-----11----9----9---|
|-10--12---10-----12---10---10---|
|--0-----------------------------|
|--------------------------------|


 7/8                            4/4
   E.  S E  S S  S S  S S  S S    E.  S E  S S S  S E  S S  S S
|--9--11---12---12---12---11---|--9--11----9-----11----9----9----|
|-10--12---13---13---13---12---|-10--12---10-----12---10---10----|
|--0---------------------------|--0------------------------------|
|------------------------------|---------------------------------|


 3/4                       4/4
   E.  S E  S S  S S  S S    E.  S E  S S S  S E  S S  S S
|--9--11---12---12---12---|--9--11----9-----11----9----9---|
|-10--12---13---13---13---|-10--12---10-----12---10---10---|
|--0----------------------|--0-----------------------------|
|-------------------------|--------------------------------|


 7/8
   E.  S E  S S  S S  S S  S S
|--9--11---12---12---12---11---|
|-10--12---13---13---13---12---|
|--0---------------------------|
|------------------------------|


 6/8
  W        W          W          Q.   Q.     E. S S S E E E
|--------|----------|----------|-----------|-----------------|
|--------|----------|----------|-----------|-----------------|
|--------|----------|----------|-----------|-----------------|
|--------|----------|----------|-0----2----|-3--3---3-5-3-5--|


  E S S S S E E E   E. S S S E E E
|-----------------|----------------|
|-----------------|----------------|
|-----------------|----------------|
|-7---7---7-7-5-7-|-3--3---3-5-3-2-|


  E. S E E E E   E. S S S E E E   E S S S S E E E
|--------------|----------------|------------------|
|----0-2-------|----------------|------------------|
|--------------|----------------|------------------|
|-0------2-0-2-|-3--3---3-5-3-5-|-7---7---7-7-5-7--|


  E. S S S E E E   E. S E Q.     Q.   Q.     S S S S S S Q  E
|----------------|-------------|-----------|-----------5-------|
|----------------|----0-2------|-----------|-------5-7---7-----|
|----------------|-------------|-----------|---5-7-------------|
|-3--3---3-5-3-2-|-0------2----|-3----5----|-7-----------------|


 4/4                               7/8
  Gtr II
  S S S S S S S S S S S S S S S S   S S S S S S S  S S  S S  S  S  S
|---------------------------------|----------------------------------|
|---------------------------------|----------------------------------|
|-3-----5-----3-----5-----3---3---|-3-----5-----6----6----6-----5----|
|---0-0---0-0---0-0---0-0---0---0-|---0-0---0-0----0----0----0-----0-|
|
| Gtr III
| S S S S S S S S S S S S S S S S   S S S S S S S  S S  S S  S  S  S
|-5-----7-----5-----7-----5---5---|-5-----7-----8----8----8----------|
|---------------------------------|----------------------------12----|
|---5-5---5-5---5-5---5-5---5---5-|---5-5---5-5----------------------|
|---------------------------------|---------------10---10---10----10-|


 4/4
  Gtr I
   E.        S  E     S  S  S  S  E     S  S  S  S
|--9--------11--------9-------11--------9-----9----|
|-10--------12-------10-------12-------10----10----|
|--------------------------------------------------|
|--7-----------------------------------------------|
|
| Gtr II
|  S   S  S  S  S  S  S  S  S  S  S  S  S  S  S  S
|--------------------------------------------------|
|--------------------------------------------------|
|--3---------5--------3--------5--------3-----3----|
|------0--0-----0--0-----0--0-----0--0-----0-----0-|
|
| Gtr III
|  S   S  S  S  S  S  S  S  S  S  S  S  S  S  S  S
|--------------------------------------------------|
|-10--------12-------10-------12-------10----10----|
|--------------------------------------------------|
|-----10-10----10-10----10-10----10-10----10----10-|


 3/4
   E.        S  E     S  S  S  S  S  S
|--9--------11-------12----12----12-----|
|-10--------12-------13----13----13-----|
|--0------------------------------------|
|---------------------------------------|
|
|  S   S  S  S  S  S  S  S  S  S  S  S
|---------------------------------------|
|---------------------------------------|
|--3---------5--------6-----6-----6-----|
|------0--0-----0--0-----0-----0-----0--|
|
|  S   S  S  S  S  S  S  S  S  S  S  S
|---------------------8-----8-----8-----|
|-10--------12--------------------------|
|---------------------------------------|
|-----10-10----10-10----10----10----10--|


 4/4
   E.        S  E     S  S  S  S  E     S  S  S  S
|--9--------11--------9-------11--------9-----9----|
|-10--------12-------10-------12-------10----10----|
|--0-----------------------------------------------|
|--------------------------------------------------|
|
|  S   S  S  S  S  S  S  S  S  S  S  S  S  S  S  S
|--------------------------------------------------|
|--------------------------------------------------|
|--3---------5--------3--------5--------3-----3----|
|------0--0-----0--0-----0--0-----0--0-----0-----0-|
|
|  S   S  S  S  S  S  S  S  S  S  S  S  S  S  S  S
|--------------------------------------------------|
|-10--------12-------10-------12-------10----10----|
|--------------------------------------------------|
|-----10-10----10-10----10-10----10-10----10----10-|


 7/8
   E.        S  E     S  S  S  S  S  S  S  S
|--9--------11-------12----12----12----11----|
|-10--------12-------13----13----13----12----|
|--0-----------------------------------------|
|--------------------------------------------|
|
|  S   S  S  S  S  S  S  S  S  S  S  S  S  S
|--------------------------------------------|
|--------------------------------------------|
|--3---------5--------6-----6-----6-----5----|
|------0--0-----0--0-----0-----0-----0-----0-|
|
|  S   S  S  S  S  S  S  S  S  S  S  S  S  S
|---------------------8-----8-----8----------|
|-10--------12-------------------------12----|
|--------------------------------------------|
|-----10-10----10-10----10----10----10----10-|


 4/4
   E.        S  E     S  S  S  S  E     S  S  S  S
|--9--------11--------9-------11--------9-----9----|
|-10--------12-------10-------12-------10----10----|
|--0-----------------------------------------------|
|--------------------------------------------------|
|
|  S   S  S  S  S  S  S  S  S  S  S  S  S  S  S  S
|--------------------------------------------------|
|--------------------------------------------------|
|--3---------5--------3--------5--------3-----3----|
|------0--0-----0--0-----0--0-----0--0-----0-----0-|
|
|  S   S  S  S  S  S  S  S  S  S  S  S  S  S  S  S
|--------------------------------------------------|
|-10--------12-------10-------12-------10----10----|
|--------------------------------------------------|
|-----10-10----10-10----10-10----10-10----10----10-|


 3/4
   E.        S  E     S  S  S  S  S  S
|--9--------11-------12----12----12-----|
|-10--------12-------13----13----13-----|
|--0------------------------------------|
|---------------------------------------|
|
|  S   S  S  S  S  S  S  S  S  S  S  S
|---------------------------------------|
|---------------------------------------|
|--3---------5--------6-----6-----6-----|
|------0--0-----0--0-----0-----0-----0--|
|
|  S   S  S  S  S  S  S  S  S  S  S  S
|---------------------8-----8-----8-----|
|-10--------12--------------------------|
|---------------------------------------|
|-----10-10----10-10----10----10----10--|


 4/4
   E.        S  E     S  S  S  S  E     S  S  S  S
|--9--------11--------9-------11--------9-----9----|
|-10--------12-------10-------12-------10----10----|
|--0-----------------------------------------------|
|--------------------------------------------------|
|
|  S   S  S  S  S  S  S  S  S  S  S  S  S  S  S  S
|--------------------------------------------------|
|--------------------------------------------------|
|--3---------5--------3--------5--------3-----3----|
|------0--0-----0--0-----0--0-----0--0-----0-----0-|
|
|  S   S  S  S  S  S  S  S  S  S  S  S  S  S  S  S
|--------------------------------------------------|
|-10--------12-------10-------12-------10----10----|
|--------------------------------------------------|
|-----10-10----10-10----10-10----10-10----10----10-|

[ Tab from: http://www.guitartabs.cc/tabs/r/rush/driven_btab.html ]
 3/4                                    6/8
   E.        S  E     S  S  S  S  S  S    Q.   Q.
|--9--------11-------12----12----12----|------------|
|-10--------12-------13----13----13----|------------|
|--0-----------------------------------|------------|
|--------------------------------------|-12----5----|
|
|  S   S  S  S  S  S  S  S  S  S  S  S    W
|--------------------------------------|------------|
|--------------------------------------|------------|
|--3---------5--------6-----6-----6----|------------|
|------0--0-----0--0-----0-----0-----0-|------------|
|
|  S   S  S  S  S  S  S  S  S  S  S  S    W
|---------------------8-----8-----8----|------------|
|-10--------12-------------------------|------------|
|--------------------------------------|------------|
|-----10-10----10-10----10----10----10-|------------|


  Q.    S E. E   Q.   Q.     S S S S S S S S S S S S
|--------------|-----------|-------------------------|
|--------------|-0---------|-------------------------|
|--------------|-----------|-3-3-3-3-3-3-3-3-3-3-3-3-|
|-7----10-3--2-|------5----|-------------------------|


  Q  +S  S E E E   E. E S  S E. E
|----------------|----------------|
|----------------|----------------|
|-5--(5)-5-------|----------------|
|----------5-5-5-|-5--7-7-10-3--2-|


  E. E. E E E   E. E S E E E   E. E S E E E
|-------------|--------------|--------------|
|-0--0--------|--------------|-0--0-0-------|
|-------------|-3--3-3-2-3-2-|--------------|
|-------5-5-5-|--------------|--------5-5-5-|


  E. E S  S E. E   E. E. E E E   E. E S E S S S S
|----------------|-------------|------------------|
|----------------|-0--0--------|------------------|
|----------------|-------------|-3--3-3-3-3-3-3-3-|
|-5--7-7-10-3--2-|-------5-5-5-|------------------|


  E. E S E E E   E. E S  S E. E   E. E. E E E
|--------------|----------------|-------------|
|--------------|----------------|-0--0--------|
|-3--5-5-------|----------------|-------------|
|--------5-5-5-|-5--7-7-10-3--2-|-------5-5-5-|


  S E S E E E E   E. E S E E E   E. E S S E. E
|---------------|--------------|---------------|
|-------------3-|-3--3-3-------|--------1------|
|-3---3---2-3---|--------1-1-1-|-1--3-3--------|
|---------------|--------------|----------6--5-|


  E. E S E E E   E S E S E E E   E. E S E E E   E. E S S E. E   E. E S E E E
|--------------|---------------|--------------|---------------|--------------|
|-3--3-3-------|-1-1-1-1-0-3---|-3--3-3-------|--------1------|-3--3-3-------|
|--------1-1-1-|-------------5-|--------1-1-1-|-1--3-3--------|--------1-1-1-|
|--------------|---------------|--------------|----------6--5-|--------------|


  E S E S E E E   E. E S E E E   E. E S  S E. E
|-------------2-|--------------|----------------|
|-1-1-1-1-0-3---|-0--0-0-------|----------------|
|---------------|--------------|----------------|
|---------------|--------5-5-5-|-5--7-7-10-3--2-|


  E. E S E E E   S E E S E S S S S
|--------------|--------------------|
|-0--0-0-------|--------------------|
|--------------|-3---3-3-2-2-3-2-3--|
|--------5-5-5-|--------------------|


  E. E S E E E   E. E S  S E. E   E. E S E E E
|--------------|----------------|--------------|
|--------------|----------------|-0--0-0-------|
|-3--5-5-------|----------------|--------------|
|--------5-5-5-|-5--7-7-10-3--2-|--------5-5-5-|


  E S E S E E E   Q.   Q.     E. E S E E E
|---------------|-----------|----------------|
|---------------|-----------|----------------|
|-3-3-3-3-2-2-2-|-----------|----------------|
|---------------|-3----5----|-7--7-7-7-5-7---|


  E. E. E E E   E E E E E E   E E E E E E   E S S S S S Q  +S
|-------------|-------------|-------------|-----------5--------|
|-------------|-------------|-------------|-------5-7---7--(7)-|
|-------------|-------------|-------------|---5-7--------------|
|-3--3--5-3-2-|-0-0-0-2-2-2-|-3-3-3-5-5-5-|-7------------------|


 4/4
   E.  S E  S S S  S E  S S  S S
|--9--11----9-----11----9----9---|
|-10--12---10-----12---10---10---|
|--------------------------------|
|--7-----------------------------|


 7/8                            4/4
   E.  S E  S S  S S  S S  S S    E.  S E  S S S  S E  S S  S S
|--9--11---12---12---12---11---|--9--11----9-----11----9----9----|
|-10--12---13---13---13---12---|-10--12---10-----12---10---10----|
|--0---------------------------|--0------------------------------|
|------------------------------|---------------------------------|


 3/4                       4/4
   E.  S E  S S  S S  S S    E.  S E  S S S  S E  S S  S S
|--9--11---12---12---12---|--9--11----9-----11----9----9---|
|-10--12---13---13---13---|-10--12---10-----12---10---10---|
|--0----------------------|--0-----------------------------|
|-------------------------|--------------------------------|


 7/8
   E.  S E  S S  S S  S S  S S
|--9--11---12---12---12---11---|
|-10--12---13---13---13---12---|
|--0---------------------------|
|------------------------------|


 4/4                              3/4
   E.  S E  S S S  S E  S S  S S    E.  S E  S S  S S  S S
|--9--11----9-----11----9----9---|--9--11---12---12---12---|
|-10--12---10-----12---10---10---|-10--12---13---13---13---|
|--0-----------------------------|--0----------------------|
|--------------------------------|-------------------------|


 4/4
   E.  S E  S S S  S E  S S  S S
|--9--11----9-----11----9----9----|
|-10--12---10-----12---10---10----|
|--0------------------------------|
|---------------------------------|


 7/8                        6/8
   E.  S E  S S  S S  E  E   E S E S E S E S
|--9--11---12---12---12-12-|-----------------|
|-10--12---13---13---13----|-----------------|
|--0-----------------------|-----------------|
|--------------------------|-3---3-3-5---5---|


  E S E S S S S S E   E S S S S E E E
|-------------------|-----------------|
|---------7-----7---|-----------------|
|-------------------|-----------------|
|-7-7-7-7---7-7---7-|-3---3---3-5-3-2-|


  E. S E E E E   E S E S E E E   E S E S S S S S S S   E S E S E E E
|--------------|---------------|---------------------|---------------|
|----0-2-------|---------------|---------------------|---------------|
|--------------|---------------|---------7-----7---7-|---------------|
|-0------2-2-2-|-3---3-3-5-3-5-|-7---7-7---7-7---7---|-3---3-3-5-3-2-|


  E S S S S E S S E   E S E S E E E   E S E S E E E   E S E S E E E
|-------------------|---------------|---------------|---------------|
|-----0-------------|---------------|---------------|---------------|
|-------------------|---------------|-----7---7-5-7-|---------------|
|-0-0---0-0-2-0-0-2-|-3---3-3-5-3-5-|-7-7---7-------|-3---3-3-5-3-2-|


  E S S E E S S E   E. E S E E E   S S S S S S S S S S E   E S E S E E E
|-----------------|--------------|-----------------------|---------------|
|-----0-2---------|--------------|-------7-----5---7---5-|---------------|
|-----------------|--------------|-----------------------|---------------|
|-0-0-----2-1-1-2-|-3--3-3-5-3-5-|-7-7-7---7-7---7---7---|-3---3-3-5-3-2-|


  E S E S E S S E   E S E S E S S E   S S S S S  S  Q.
|-----------------|-----------------|-------5-9-12-14-----|
|-----0-0-----2---|-----3-3---5-5---|---5-7---------------|
|-----------------|-----------------|---------------------|
|-0-0-----2-2---2-|-3-3-3-3-3-----3-|---------------------|


 4/4                                     7/8
   S S S  S S S  S S S  S S S  S S  S S    S S S  S S S  S S  S S  S S  S S
|---------------------------------------|-----------------------------------|
|---------------------------------------|-----------------------------------|
|---------------------------------------|-----------------------------------|
|-10-0-0-12-0-0-10-0-0-12-0-0-10-0-10-0-|-10-0-0-12-0-0-13-0-13-0-13-0-12-0-|


 4/4                                     3/4
   S S S  S S S  S S S  S S S  S S  S S    S S S  S S S  S S  S S  S S
|---------------------------------------|-------------------------------|
|---------------------------------------|-------------------------------|
|---------------------------------------|-------------------------------|
|-10-0-0-12-0-0-10-0-0-12-0-0-10-0-10-0-|-10-0-0-12-0-0-13-0-13-0-13-0--|


 4/4                                     7/8
   S S S  S S S  S S S  S S S  S S  S S    S S S  S S S  S S  S S  S S  S S
|---------------------------------------|-----------------------------------|
|---------------------------------------|-----------------------------------|
|---------------------------------------|-----------------------------------|
|-10-0-0-12-0-0-10-0-0-12-0-0-10-0-10-0-|-10-0-0-12-0-0-13-0-13-0-13-0-12-0-|


 4/4                                     3/4
   S S S  S S S  S S S  S S S  S S  S S    S S S  S S S  S S  S S  S S
|---------------------------------------|-------------------------------|
|---------------------------------------|-------------------------------|
|---------------------------------------|-------------------------------|
|-10-0-0-12-0-0-10-0-0-12-0-0-10-0-10-0-|-10-0-0-12-0-0-13-0-13-0-13-0--|


 4/4
   S S S  S S S  S S S  S S S  S S  S S
|---------------------------------------|
|---------------------------------------|
|---------------------------------------|
|-10-0-0-12-0-0-10-0-0-12-0-0-10-0-10-0-|


 3/4                            4/4
   S S S  S S S  S S  S S  S S    E E Q  H
|------------------------------|--------------*|
|------------------------------|--------------*|
|------------------------------|--------------*|
|-10-0-0-12-0-0-13-0-13-0-13-0-|-12-----------*|




Duration Legend
---------------
W - whole; H - half; Q - quarter; E - 8th; S - 16th; T - 32nd; X - 64th; a - acciaccatura
+ - note tied to previous; . - note dotted; .. - note double dotted
Uncapitalized letters represent notes that are staccato (1/2 duration)
Irregular groupings are notated above the duration line
Duration letters will always appear directly above the note/fret number it represents the
duration for.  Duration letters with no fret number below them represent rests.  Multi-
bar rests are notated in the form Wxn, where n is the number of bars to rest for.  Low
melody durations appear below the staff

Tablature Legend
----------------
 h   - hammer-on
 p   - pull-off
 b   - bend
 pb  - pre-bend
 r   - bend release (if no number after the r, then release immediately)
 /\  - slide into or out of (from/to "nowhere")
 s   - legato slide
 S   - shift slide
<n> - natural harmonic
[n]  - artificial harmonic
n(n) - tapped harmonic
 ~   - vibrato
 tr  - trill
 T   - tap
 TP  - trem. picking
 PM  - palm muting
\n/  - tremolo bar dip; n = amount to dip
 \n  - tremolo bar down
 n/  - tremolo bar up
/n\  - tremolo bar inverted dip
 =   - hold bend; also acts as connecting device for hammers/pulls
 <> - volume swell (louder/softer)
 x   - on rhythm slash represents muted slash
 o   - on rhythm slash represents single note slash

Misc Legend
-----------
 |  - bar
||  - double bar
||o - repeat start
o|| - repeat end
*|  - double bar (ending)
 :  - bar (freetime)
 $  - Segno
 &  - Coda
Tempo markers - <E/E./Q/Q./H/H.> = BPM(8/16=s8/s16), where s8 = swing 8ths, s16 = swing 16ths

** Generated using Power Tab Editor by Brad Larsen:   The Official Power Tab Web Site


Comments