Rush - Dreamline Chords & Tabs

 

Dreamline Chords & Tabs

Rush Chords & Tabs

Version: 1 Type: Bass Tab 0 ratings
1 star 2 stars 3 stars 4 stars 5 stars
comments

Dreamline Bass Tab

   
Rush: Dreamline
>From the album Roll the Bones (Atlantic Records)
Copyright 1991 Core Music Publishing
Music by Lee and Lifeson
Lyrics by Peart

Comments/corrections to Sean Jones 

Transcribed by Michael DuClos and Sean Jones


    w   h+q q      e e e e e e e e 5  e e e e e e e e
+-----+---------+-------------------+------------------+
|4:-R-|-R-------|*-----------------*|------------------|
|4:---|-----12\-|*-----------------*|---------------12\|
+-----+---------+--0-0-0-0-0-0-0-0--+-0-0-0-0-0-0-7/---+


   e e e e e e e e 2  e e e e e e e e
+-------------------+-----------------+
|*-----------------*|-----------------|
|*-2-2-2-2-2-2-2-2-*|-3-3-3-3-3-3-3-3-|
+-------------------+-----------------+

  e e e e e q e   e e e e e e e e   e e e  q  q e   +e e e e e e e e
+---------------+-----------------+-------12-11-9-+------------------+
|---------------|-----------------|-------12-11-9-|------------------|
|-----------5-7-|-----7---7-----7-|-----7---------|------7---7-------|
+-3-3-3-3-3-----+-0-0---0---0-0---+-0-0-----------+----0---0---0-0-0-+


  e e e  q  q e   +e e e e e e e e   e e e  q  q e   e e e e e e e e
+-------12-11-9-+------------------+-------12-11-7-+-----------------+
|-------12-11-9-|------------------|-------12-11-7-|-R-0-0-0-0-0-0-0-|
|-7-------------|------7-7-7-7-7-7-|-7-7-7---------|-----------------|
+---0-0---------+----0-------------+---------------+-----------------+


  e e e  q q e   +e e e e e e e e   +e e e q e e e   +e e e e e e e e
+-------11-9-4-+------------------+----------------+------------------+
|-0-0-0-11-9-4-|------------------|----------------|------------------|
|--------------|----2-2-2-2-2-2-3-|----3-3-5-5-5---|------7---7-----7-|
+--------------+------------------+--------------0-+----0---0---0-0---+


  +e e e  q  q e   +e e q e e e e   e e e  q  q e   +e e e e e e e e
+--------12-11-9-+----------------+-------12-11-7-+------------------+
|--------12-11-9-|----------------|-------12-11-7-|----0-0-0-0-0-0-0-|
|----------------|------7---------|---------------|------------------|
+----0-0---------+----0---0-0-0-0-+-0-0-0---------+------------------+


  e e e  q q e   +e e e e e e e e   +e e e q e e e    e e e e e e e e 5
+-------11-9-4-+------------------+----------------+-------------------+
|-0-0-0-11-9-4-|------------------|----------------|*-----------------*|
|--------------|----2-2-2-2-0-2-3-|----2-3-5-3-5-7-|*-----------------*|
+--------------+------------------+----------------+--0-0-0-0-0-0-0-0--+


  e e e e e  e e e    e e e e e e e e 2  e e e e e e e e
+------------------+-------------------+-----------------+
|-----------12\7\0-|*-----------------*|-----------------|
|------------------|*-2-2-2-2-2-2-2-2-*|-3-3-3-3-3-3-3-3-|
+-0-0-0-0-0--------+-------------------+-----------------+


  e e e e e e e e   e e e e e e e e   e e e  q  q e   e e e e e e e e e
+-----------------+-----------------+-------12-11-9-+-------------------+
|-----------------|-----------------|-------12-11-9-|-R-----------------|
|-------------5-7-|-----------------|---------------|-----7-7-7-7-7-7-7-|
+-3-3-3-3-3-3-----+-0-0-0-0-0-0-0-0-+-0-0-0---------+---0---------------+


  e e e  q  q e   e e e e e e e e   e e e  q  q e   +e e e e e e e e
+-------12-11-9-+-----------------+-------12-11-7-+------------------+
|-------12-11-9-|-R---------------|-------12-11-7-|----0-0-0-0-0-0-0-|
|-7-7-7---------|-----7-7-7-7-7-7-|-7-7-7---------|------------------|
+---------------+---0-------------+---------------+------------------+


  e e e  q q e   +e e e e e e e e   +e e e q e e e   +e e e e e e e e
+-------11-9-4-+------------------+----------------+------------------+
|-0-0-0-11-9-4-|------------------|----------------|------------------|
|--------------|----2-2-2-2-0-2-3-|----2-3-5-3-2---|------7---7-------|
+--------------+------------------+--------------0-+----0---0---0-0-0-+


  e e e  q  q e   +e e e e e e e e   e e e  q  q e   +e e e e e e e e
+-------12-11-9-+------------------+-------12-11-7-+------------------+
|-------12-11-9-|------------------|-------12-11-7-|----0-0-0-0-0-0-0-|
|---------------|------7-7-7-7-7-7-|-7-7-7---------|------------------|
+-0-0-0---------+----0-------------+---------------+------------------+


  e e e  q q e   +e e e e e e e e   +e e e q e e e    e e e e e e e e 2
+-------11-9-4-+------------------+----------------+-------------------+
|-0-0-0-11-9-4-|------------------|----------------|*-----------------*|
|--------------|----2-2-2-2-0-2-3-|----2-3-5-3-5-7-|*-----------------*|
+--------------+------------------+----------------+--0-0-0-0-0-0-0-0--+


  e e e e e e e e   e e e e e e e e    e e e e e e e e
+-----------------+-----------------+-------------------+
|-7-7-7---7-7-----|-7-7-7-7-7-7-9-7-|*-5-5-5-5-5-5-5-5-*|
|-------0-----0-0-|-----------------|*-----------------*|
+-----------------+-----------------+-------------------+


  e e e e e e e e   e e e e e e e e   e e e e e e e e   e e e q e e e
+-----------------+-----------------+-----------------+---------------+
|-----------------|-----------------|-----------------|---------------|
|-5-5-5-5-5-5-5-5-|-5-5-5-5-5-5-5-5-|-3-3-3-3-3-3-3-3-|-3-2-0-3-3-3-3-|
+-----------------+-----------------+-----------------+---------------+


  e e e e e e e e   e e e e e e e e   e e e e e e e e   e e e e e e e e
+-----------------+-----------------+-----------------+-----------------+
|-----7-----5-7---|-9-7-7-5-7-7---7-|-5-5-5-5-5-5-5-5-|-5-5-5-5-5-5-5-7-|
|-0-0---0-0-----0-|-------------7---|-----------------|-----------------|
+-----------------+-----------------+-----------------+-----------------+


  e e e e e e e e   e e e e e s s e e   e e e e e e e e   e e e e e e e e
+-----------------+-------------------+-----------------+-----------------+
|-----------------|-------------------|-----------------|-----------------|
|-5-5-5-5-5-5-5-5-|-5-5-5-5-5-5-5-5-5-|-3-3-3-3-3-3-3---|-3---3-3-3-3-3-3-|
+-----------------+-------------------+---------------3-+---3-------------+


  e e e e e e e e   e e e e e e e e
+-----9-----9-----+-9-----9-----7-9-+
|-----------------|-----------------|
|-----7-----7-----|-7-----7-----5-7-|
+-0-0---0-0---0-0-+---0-0---0-0-----+


   e e e e e e e e    e e e e e e e e 3  e e q e q e   e q e e e e e
+------9-----9---11-+-9-----9-----7-9--+-------------+---------------+
|*------------------|-----------------*|-------------|---------------|
|*-----7-----7---9--|-7-----7-----5-7-*|-2-2-2-2-2-2-|-2-2-2-2-2-2-2-|
+--0-0---0-0---0----+---0-0---0-0------+-------------+---------------+

[ Tab from: http://www.guitartabs.cc/tabs/r/rush/dreamline_btab.html ]
  e e e e e e e e   e e e e e e e e   e e e e e e e e   e e e  q  q e
+-----------------+-----------------+-----------------+-------12-11-9-+
|-----------------|-----------------|-----------------|-------12-11-9-|
|-3-3-3-3-3-3-3-3-|-5-5-------------|-----------------|---------------|
+-----------------+-----5-5-5-5-5-5-+-0-0-0-0-0-0-0-0-+-0-0-0---------+


  e e e e e e e e   e e e  q  q e   e e e e e e e e   e e e  q  q e
+-----------------+-------12-11-9-+-----------------+-------12-11-7-+
|-R---------------|-------12-11-9-|-R---------------|-------12-11-7-|
|---7-7-7-7-7-7-7-|-7-7-7---------|---7-7-7-7-7-7-7-|-7-7-7---------|
+-----------------+---------------+-----------------+---------------+


  e e e e e e e e   e e e  q q e   +e e e e e e e e   +e e e q e e e
+-----------------+-------11-9-4-+------------------+----------------+
|-R-0-0-0-0-0-0-0-|-0-0-0-11-9-4-|------------------|----------------|
|-----------------|--------------|----2-2-2-2-0-2-3-|----2-3-5-3-5-7-|
+-----------------+--------------+------------------+----------------+


  +e e e e e e e e   e e e  q  q e   e e e e e e e e   e e e  q  q e
+------------------+-------12-11-9-+-----------------+-------12-11-7-+
|------------------|-------12-11-9-|-R---------------|-------12-11-7-|
|------------------|---------------|---7-7-7-7-7-7-7-|-7-7-7---------|
+----0-0-0-0-0-0-0-+-0-0-0---------+-----------------+---------------+


  e e e e e e e e   e e e  q q e   +e e e e e e e e   +e e e q e e e
+-----------------+-------11-9-4-+------------------+----------------+
|-R-0-0-0-0-0-0-0-|-0-0-0-11-9-4-|------------------|----------------|
|-----------------|--------------|----2-2-2-2-0-2-3-|----2-3-5-3-5-7-|
+-----------------+--------------+------------------+----------------+


  e e e e e e e e   e e e q e e e   e e e e e e e e   e e e q e e e
+-----------------+---------------+-----------------+---------------+
|-----------------|---------------|-----------------|---------------|
|-----7---7-------|-------9---5-7-|-----7---7-------|-------9---5-7-|
+-0-0---0---0-0-0-+-0-0-0---0-----+-0-0---0---0-0-0-+-0-0-0---0-----+


  e e e e e e e   e e e e e e e e   e e e e e e e   e e e q e e e
+---------------+-----------------+---------------+---------------+
|---------------|-----------------|---------------|---------------|
|-5-5-5-5-5-5-5-|-5-5-5-5-5-5-7-5-|-2-2-2-2-2-2-2-|-3-3-3---------|
+---------------+-----------------+---------------+-------3-3-3-3-+


  e e e e e e e e   e e e q s s e e   e e e e e e e e   e e e q s s e e
+-----------------+-----------------+-----------------+-----------------+
|-----------------|-----------------|-----------------|-----------------|
|-----7---7-------|-7-----9-7-7-5-7-|-----7---7-------|-7-----9-7-7-5-7-|
+-0-0---0---0-0-0-+---0-0-----------+-0-0---0---0-0-0-+---0-0-----------+


  e e e e e q e   q q e e e   e e e e e e e e   s s s s s s s s s s s s s s s s
+---------------+-----------+-----------------+--------------------------------+
|-----------7---|-7---------|-----------------|--------------------------------|
|-5-5-5-5-5---5-|---5-5-7-5-|-2-2-2-2-2-2-2-2-|-3-3-3-3-3-3-3-3----------------|
+---------------+-----------+-----------------+-----------------3-3-3-3-3-3-3-3+


  e e e e e e e e   e e e e e e e e    e e e e e e e e   e e e e e e e e
+-----9-----9-----+-9-----9-----11-9-+-----7-----7-----+-7-----7---------+
|-----7-----7-----|-7-----7-----9--7-|-5-5-5-5-5-5-5-5-|-5-5-5-5-5-5-7-5-|
|-0-0-0-0-0---0-0-|---0-0---0-0------|-----------------|-----------------|
+-----------------+------------------+-----------------+-----------------+


  e e e e e e e e   e e e e e e e e   e e e e e e e e   e e e e e e q
+-----------------+-----------------+-----------------+---------------+
|-----------------|-----------------|-----------------|---------------|
|-5-5-5-5-5-5-5-5-|-5-5-5-5-5-5-5-7-|-3-3-3-3-3-3-3-3-|-3-3-3---3---3-|
+-----------------+-----------------+-----------------+-------3---3---+


  e e e e e e e e   e e e q e q     e e e e e e e e   e e e e e e e e
+-----------------+---------------+-----------------+-----------------+
|-----7-----9-7---|-5H7-7-7-7-7\X-|-5-5-5-5-5-5-5-5-|-5-5-5-5-5-7-5-7-|
|-0-0---0-0-----0-|---------------|-----------------|-----------------|
+-----------------+---------------+-----------------+-----------------+


  e e e e e e e e   e q q e e e   e e e e e e e e   e e e e e e e e
+-----------------+-------------+-----------------+-----------------+
|-----------------|-----7-------|-----------------|-----------------|
|-5-5-5-5-5-5-5-5-|-5-7---5-5-5-|-3-3-3-3-3-3-3-3-|-3---3-3---3---3-|
+-----------------+-------------+-----------------+---3-----3---3---+


   e e e e e e e e 2   e e e e e e e e 2  e e e e e e e e   e e e e   e e e e
+-------------------+-------------------+-----------------+-------------------+
|*-----------------*|*-5-5-5-5-5-5-5-5-*|-----------------|-----------R-------|
|*-----------------*|*-----------------*|-5-5-5-5-5-5-5-5-|-5-5-5-7\X---5-5-7-|
+--5-5-5-5-5-5-5-5--+-------------------+-----------------+-------------------+


  e e e e e e e e   e e e e e e q   w   +Q  q  q e   e e e e e e e e
+-----------------+---------------+---+----12-11-9-+-----------------+
|-----------------|---------------|---|----12-11-9-|-R---------------|
|-3-3-3-3-3-3-3-3-|-3---3-3---3-3-|---|------------|-----------------|
+-----------------+---3-----3-----+-0-+------------+---0-0-0-0-0-0-0-+


  e e e  q  q e   e e e e e e e e   e e e  q  q e   e e e e e e e e
+-------12-11-9-+-----------------+-------12-11-7-+-----------------+
|-------12-11-9-|-R---------------|-------12-11-7-|-R-0-0-0-0-0-0-0-|
|---------------|-----------------|---------------|-----------------|
+-0-0-0---------+---0-0-0-0-0-0-0-+-0-0-0---------+-----------------+


  e e e  q q e   +e e e e e e e e   +e e e q e e e   +e e e e e e e e
+-------11-9-4-+------------------+----------------+------------------+
|-0-0-0-11-9-4-|------------------|----------------|------------------|
|--------------|----2-2-2-2-0-2-3-|----2-3-5-3-5-7-|------------------|
+--------------+------------------+----------------+----0-0-0-0-0-0-0-+


  e e e  q  q e   e e e e e e e e   e e e  q  q e   +e e e e e e e e
+-------12-11-9-+-----------------+-------12-11-7-+------------------+
|-------12-11-9-|-R---------------|-------12-11-7-|----0-0-0-0-0-0-0-|
|---------------|---7-7-7-7-7-7-7-|-7-7-7---------|------------------|
+-0-0-0---------+-----------------+---------------+------------------+


  e e e  q q e   +e e e e e e e e   +e e e q e e e
+-------11-9-4-+------------------+------------------+
|-0-0-0-11-9-4-|------------------|------------------|
|--------------|----2-2-2-2-0-2-3-|----2-3-5-3-5-7\X-|
+--------------+------------------+------------------+


==========================================================================

     __         Created using the Bass Tab Creator
   +|oo|+       by Mario D'Alessio (motcid!marble!dalessio)
   +|oo|+
     ||         NOTES:
     ||
     ||         Capital durations are dotted notes
     ||           (equal to 1.5 times the duration value)
     ||
     ||             x
     ||         +----+                   +----+
  _  ||  _      |*--*+  = MEASURE        |4:--|  = TIME
  \\_||_//      |*--*+    REPEATS        |4:--|    SIGNATURES
   | [] |       +----+  x=# of repeats   +----+
   | || |
  /  []  \      + = TIE         ^  = TRIPLET           > = BEND
  \______/      H = HAMMER ON   \  = SLIDE TO FRET     R = Rest
                P = PULL OFF    \X = SLIDE TO NOWHERE  ~ = Trill

==========================================================================



Comments