Rush - Distant Early Warning Chords & Tabs

 

Distant Early Warning Chords & Tabs

Rush Chords & Tabs

Version: 2 Type: Bass Tab 0 ratings
1 star 2 stars 3 stars 4 stars 5 stars
comments

Distant Early Warning Bass Tab

This is the bass tab to Distant Early warning by Rush
                                                                                
  Distant Early Warning 
  Rush
  transcribed by: Fred
  E-mail: freddy@soonet.ca
[ Tab from: http://www.guitartabs.cc/tabs/r/rush/distant_early_warning_btab_ver_2.html ]
G-|-------------------------------------------5-5-4-------------|
D-|------5---7-----5---5---7-7-5-----3---5----------5-7-7-5-\---|
A-|--0-0---0---0-0---0---0-------3-3---3---3--------------------|
E-|-------------------------------------------------------------|
                                                                               
                                                                               
G-|--------------------------|
D-|--------------------------|
A-|------3---5---/-7-5-3-3-7-|
E-|--3-3---3---3-------------|
  this part was taken from guitar school magazine                                                                             
                                                                               
G-|--------------------------------|----------------------|
D-|--------------------------------|*--------------------*|
A-|--------------------------------|*--------------------*|
E-|-5-5-5--0-5-5-5--5-5-5--0-5-5-5-|---3-/-5--3-3-3-5-5---|
  this is the pre-chorus                                                                             
                                                                               

"I just slipped down these damn stairs..."
This has been a message brought to you by AKA Ffreddy
Sault Ste. Marie, Ontario, Canada : at the HUB of the Great Lakes
Canada Rules, and we were always on top
Comments