Rush - Body Chords & Tabs

 

Body Chords & Tabs

Rush Chords & Tabs

Version: 1 Type: Tab 0 ratings
1 star 2 stars 3 stars 4 stars 5 stars
comments

Body Tab

   
#----------------------------------PLEASE NOTE---------------------------------#
#This file is the author's own work and represents their interpretation of the #
#song. You may only use this file for private study, scholarship, or research. #
#------------------------------------------------------------------------------#
Rush - Body
From: OllieOne@aol.com
Date: Tue, 11 Jul 1995 01:34:35 -0400

                ---------------------
transcribed by |  Michael R. Oliver  |
                ---------------------

this is a really fucking good song written by Gavin Rossdale. A lot of
you people had requested it so I did my best at this song.  The riff to
this song is really cool.  It really isn't that hard so here it is


chords used for this song:
--------------------------
A |-----|  G |-----|  C |------|  D |--10--| E1 |-----|  B |-----|
  |-----|    |-----|    |------|    |--10--|    |-----|    |-----|
  |-----|    |-----|    |--9---|    |--11--|    |-----|    |-----|
  |--7--|    |--5--|    |--10--|    |--12--|    |--2--|    |--9--|
  |--7--|    |--5--|    |--10--|    |--12--|    |--2--|    |--9--|
  |--5--|    |--3--|    |--8---|    |--10--|    |--0--|    |--7--|

E2 |--12--|  F#M |--2--|
   |--12--|      |--2--|
   |--12--|      |--5--|
   |--14--|      |--4--|
   |--14--|      |--4--|
   |--12--|      |--2--|


guitar parts:
=============
notations:
~=vibrato
h=hammer on
x=mute

this is the intro riff #1
E|-------------------------------------------------------------------------|
B|-------------------------------------------------------------------------|
G|-------------------------------------------------------------------------|
D|-----5h7--7~------5h7--7~------5h7-7--5h7-7-7--5h7-7-----5h7-7-5h7--5----|
A|-5h7----------5h7----------5h7------------------------5h7-------------7~-|
E|-------------------------------------------------------------------------|

riff #2
while on guitar plays that intro riff, another plays this little slide part
E |------------------------------------------|
B |--///12~---///12--10~--10--8--10--7~--5~--|
G | -----------------------------------------| or something close 
D |------------------------------------------| to that
A |------------------------------------------|
E |------------------------------------------|


throughout the verse, the bass simply plays
(work with it)
G |--------------------------|
D |--------------------------|
A |--------------------------|
E |--5-5-x-5-x-5-x-5--5-5-5--|


*** at about .37 seconds into the song at the words, "will you....."
the guitar strums a G-chord and goes into a slight variation of riff #2
[ Tab from: http://www.guitartabs.cc/tabs/r/rush/body_tab.html ]
** at about .57 seconds into the song at the words, "wash the...."
the guitar strums a G-chord, then strums an a-chord, a B-chord, a C-chord,
and a D-chord.   the progression is G-a-B-C-D  (with one strum for each 
chord)


XXXXXXXXX-----for the words "will you come again....",
              the guitar plays this at about 1.07 (and other places)
   
   { play part A twice                       }  {play part B twice
    F#M                DM                       F#M            E2
E |-2-2-2-2-2-2-2-2-2--10-10-10-10-10-10-10-10--2------2-------12-12-12----|
B |-2-2-2-2-2-2-2-2-2--10-10-10-10-10-10-10-10--2------2-------12-12-12----|
G |-5-5-5-5-5-5-5-5-5--11-11-11-11-11-11-11-11--5------5-------12-12-12----|
D |-4-4-4-4-4-4-4-4-4--12-12-12-12-12-12-12-12--4------4--x-x--14-14-14-x--|
A |-4-4-4-4-4-4-4-4-4--12-12-12-12-12-12-12-12--4--4-4-4--x-x--14-14-14-x--|
E |-2-2-2-2-2-2-2-2-2--10-10-10-10-10-10-10-10--2--0-0-2--x-x--12-12-12-x--|
     DM                          }
E |--10--10--10-10-10-10-10--10--|
B |--10--10--10-10-10-10-10--10--|  (second time through these parts
G |--11--11--11-11-11-11-11--11--|   you will play part A and part B
D |--12--12--12-12-12-12-12--12--|   a lot more times)
A |--12--12--12-12-12-12-12--12--|
E |--10--10--10-10-10-10-10--10--|
the chords are right, just work with the strumming pattern

then, at about 3.10 minutes into the song an E1-G-A progression is played
then, at about 3.42 minutes into the song an A-G-E1 progression is played

then a solo comes, you could use the A-minor penatonic scale in the 5th
position for the "psuedo solo"

E |----------------------5-8--|
B |------------------5-8------|
G |--------------5-7----------|
D |----------5-7--------------|
A |------5-7------------------|
E |--5-8----------------------|

any questions, requests, comments, suggestions, corrections, or anything
else (like thank you notes), just e-mail me (OllieOne@aol.com) 

this tab might seem kind of cryptic because of how confusing i made it,
but it really isn't, all the chords and parts are correct, just find out
where they go and how many times to play them, have fun

note: don't forget, when you download it, print it out in NOTEPAD in 
windows or else it will come out messed up

message: when i do this tab, it is because i am trying to help people out
and i enjoy it, i don't claim to be correct on anything, so i would 
aprecciate it that if i got something wrong, don't be a prick about it,
just e-mail me and i will happily fix it, like i fix my version of little 
things (which i tabbed out a step higher that it is really played)
thank you and enjoy the tab

oh.....i also figured out the beginning of monkey!  i listened to a live
bush album and i figured it out from there, i will work on the rest 
and post it later
Comments