Rush - Anthem Chords & Tabs

 

Anthem Chords & Tabs

Rush Chords & Tabs

Version: 3 Type: Tab 0 ratings
1 star 2 stars 3 stars 4 stars 5 stars
comments

Anthem Tab

			   Anthem- Rush                                     
-------------------------------------------------------------------------------
Tabbed by:chris
Email:voodoochild1787@yahoo.com

Tuning: standard

e|----------------------------------------------------------------|
B|----------------------------------------------------------------|
G|--------5--7----------------------------------------------------| (repeat) 
D|--5--7--5--7----------------------------------------------------|
A|--5--7--3--5------7--7p5----------7--7p5----------7--7p5--------|
E|--3--5---------0---------h7p5\3-0--------h7p5\3-0--------h7p5---|
[ Tab from: http://www.guitartabs.cc/tabs/r/rush/anthem_tab_ver_3.html ]
e|-------------------------------------------------------------|
B|-------------------------------------------------------------|
G|-------5--7--------5--7--------5--7--9-----------------------|
D|-5--7--5--7--5--7--5--7--5--7--5--7--9--------(pick slide)---|
A|-5--7--3--5--5--7--3--5--5--7--3--5--7-----------------------|
E|-3--5--------3--5--------3--5--------------------------------|

e|------------------------------|
B|------------------------------|
G|-999\-1111--------5--7--------|
D|-999\-2222--3--5--5--7--------|
A|-777\-2222--3--5--3--5--------|
E|------------1--3--------------|

e|----------------------------------|
B|---9999\--------------------------|
G|---9999\--------------5--7--------|
D|---9999\-22222--3--5--5--7--------|
A|---------22222--3--5--3--5--------|
E|---------00000--1--3--------------|
Comments